Misc Soundtrack - Blazing Saddles Theme Chords & Tabs

 

Blazing Saddles Theme Chords & Tabs

Misc Soundtrack Chords & Tabs

Version: 2 Type: Tab 0 ratings
1 star 2 stars 3 stars 4 stars 5 stars
comments

Blazing Saddles Theme Tab

BLAZING SADDLES theme

I forgot who the guy who made this song was, but it is 
in the Mel Brooks movie. I don't know the chords, so
here is the melody of it.

It has a really fast tempo.

E-----------------------------/-----1-----------------------
B---1----------------1------/--3--------------------3------
G----------2-----------------/------------------------------
D------------3---------------/------------------------------
A----------------------------/------------------------------
E-----------------------------/-----------------------------


E-----------------------------/-----------------------------
B---1------------------------/------------------------------
G---------2-----------2------/---0-------------------------
D--------------3-------------/------------------------------
A----------------------------/-----------------------------
E-----------------------------/-----------------------------


E-----------------------------/-----1-----------------------
B---1----------------1------/--3--------------------3------
G----------2-----------------/------------------------------
D------------3---------------/------------------------------
A----------------------------/-----------------------------
E-----------------------------/-----------------------------

[ Tab from: http://www.guitartabs.cc/tabs/m/misc_soundtrack/blazing_saddles_theme_tab_ver_2.html ]
E-----------------------------/-----------------------------
B---1------------------------/------------------------------
G---------2------------------/------------------------------
D--------------3------0------/---3-------------------3-----
A----------------------------/------------------------------
E-----------------------------/-----------------------------


E---------------1----0--1---/--0--------------------------
B--3-----3------------------/------1----------------------
G----------------------------/------------2------------2---
D----------------------------/-----------------------------
A----------------------------/-----------------------------
E----------------------------/------------------------------


E-------------1-------0--1--/--3--------------------------
B--3----3-------------------/------------------------------
G----------------------------/-----------------------------
D----------------------------/-----------------------------
A----------------------------/-----------------------------
E----------------------------/------------------------------


E-----------------------------/-----1-----------------------
B---1----------------1------/--3--------------------3------
G----------2-----------------/------------------------------
D------------3---------------/------------------------------
A----------------------------/-----------------------------
E-----------------------------/-----------------------------


E-----------------------------/-----------------------------
B---1------------------------/------------------------------
G---------2------------------/------------------------------
D--------------3------0------/---3-------------------------
A----------------------------/------------------------------
E-----------------------------/-----------------------------

Enjoy, y'all, 
Dave Green

Comments