Misc Soundtrack - Beverly Hills Cop Theme Chords & Tabs

 

Beverly Hills Cop Theme Chords & Tabs

Misc Soundtrack Chords & Tabs

Version: 7 Type: Tab 0 ratings
1 star 2 stars 3 stars 4 stars 5 stars
comments

Beverly Hills Cop Theme Tab

Beverly Hills Cop - Axel Foley
Standard EADGBe tuning
Tabbed by NICK
Problems? Email ncesarz@wi.rr.com

INTRO
 ----------------------------------------------|
 --------------------------------6-------------|
 --------3-------5-----6-5-----5---------------|
 3-6-3-3---3---3---3-3-----6-3-----3-------5-3-|
 ------------6-----------------------6-6-3-----|
 ----------------------------------------------|
[ Tab from: http://www.guitartabs.cc/tabs/m/misc_soundtrack/beverly_hills_cop_theme_tab_ver_7.html ]
AT 0:50 THIS IS PLAYED
 ---------------------------------------------------------|
 ---------------------------------------------------------|
 5-5-5-8-8-7-7-5-5-5-8-8-7-5------------------------------|
 ----------------------------6-6-6-6-8-8-8-8-1010108-1010-|
 ---------------------------------------------------------|
 ---------------------------------------------------------|

AT 1:21 THIS IS PLAYED
 ------------|
 ------------|
 ------------|
 3-1---------|
 ----3-1-----|
 --------4-1-|


-NICK
Comments