Misc Soundtrack - Beverly Hills Cop Theme Chords & Tabs

 

Beverly Hills Cop Theme Chords & Tabs

Misc Soundtrack Chords & Tabs

Version: 6 Type: Tab 0 ratings
1 star 2 stars 3 stars 4 stars 5 stars
comments

Beverly Hills Cop Theme Tab

                         beverly hills cop by axel f
                            tabbed by erich yeung
                           standard tuning(EADGBE)
       h=hammer on

here's the basic riff throughout the entire song listen to the song to find the rhythm
      
      |----------------------------------1-----------------------|
      |----------------1-----2-1-------1-------------------------|
      |----1-----3---------------1-------------------0-----------|
      |--3---3-3---1--3--3-3---------3------3--1-1-----3---------|
      |--------------------------------------------3-------------|
      |----------------------------------------------------------|
[ Tab from: http://www.guitartabs.cc/tabs/m/misc_soundtrack/beverly_hills_cop_theme_tab_ver_6.html ]
                     then it goes.......
|-----------------------------------------------------------------|       
|---------4-4-----------------------------------------------------|
|---5-5-5-----7-5-3---5-5-5--3h5-5-------------------5-5-5--3h5-5-|
|-----------------------------------6-6-6--6h8-8---8--------------|
|-----------------------------------------------------------------|
|-----------------------------------------------------------------|

   
                    then back to this....
      |----------------------------------1-----------------------|
      |----------------1-----2-1-------1-------------------------|
      |----1-----3---------------1-------------------0-----------|
      |--3---3-3---1--3--3-3---------3------3--1-1-----3---------|
      |--------------------------------------------3-------------|
      |----------------------------------------------------------|
Comments