Misc Soundtrack - Aphexion Theme Chords & Tabs

 

Aphexion Theme Chords & Tabs

Misc Soundtrack Chords & Tabs

Version: 1 Type: Tab 0 ratings
1 star 2 stars 3 stars 4 stars 5 stars
comments

Aphexion Theme Tab

   
---------------------------------------------------------------------------
	              Aphexion Theme Tune - Misc Soundtrack 
---------------------------------------------------------------------------

Tabbed by: metalgeardave
Email: metalgeardave@hotmail.com


Tuning: EADGBE

Strum D & C through verse

Intro:
    
E|-2----0-0-0----2--|
B|-3----3-3-3----3--|
G|-2----2-2-2----2--|
D|-0----0-2-0----0--|
A|------------------|
E|------------------|


Verse:

   D                                  C    D  A

E|------2----5-3-2-3---5-3-2-3-2------0----2--0-----|
B|-3--5---3----------3-----------3----1----3--2-----|
G|------------------------------------0----2--2-----|
D|-0--0---0----------0----------------2----0--2-----|
A|------------------------------------3-------------|
E|--------------------------------------------------|


Chorus: C, G, D, D
[ Tab from: http://www.guitartabs.cc/tabs/m/misc_soundtrack/aphexion_theme_tab.html ]
C G Bb F G   /  C G Bb F A



   D                                  C    D  A

E|------2----5-3-2-3---5-3-2-3-2------0----2--0-----|
B|-3--5---3----------3-----------3----1----3--2-----|
G|------------------------------------0----2--2-----|
D|-0--0---0----------0----------------2----0--2-----|
A|------------------------------------3-------------|
E|--------------------------------------------------|


   D                                  C    D  A

E|------2----5-3-2-3---5-3-2-3-2------0----2--0-----|
B|-3--5---3----------3-----------3----1----3--2-----|
G|------------------------------------0----2--2-----|
D|-0--0---0----------0----------------2----0--2-----|
A|------------------------------------3-------------|
E|--------------------------------------------------|


Ending:

C G D A  /  C G Bb F G
Comments