Misc Soundtrack - Age Of Empires Theme Chords & Tabs

 

Age Of Empires Theme Chords & Tabs

Misc Soundtrack Chords & Tabs

Version: 3 Type: Tab 0 ratings
1 star 2 stars 3 stars 4 stars 5 stars
comments

Age Of Empires Theme Tab

   
Song Title: Age of Empires openning theme

Tab by JC Rea(jcrp_21@hotmail.com)

Symbols:

h=hammer-on
p=pull-off

Tuning: Standard

e|-(17)--------------|-------------|
B|-----------6-5---5-|-----6-5---8-|
G|---------7-----7---|---7-----7---|
D|-------7-----------|-7-----------|
A|-------------------|-------------|
E|-------------------|-------------|

e|-------------|-----------|
B|-----6-5---5-|-5-6-5-----|
G|---7-----7---|-------5-7-|
D|-7-----------|-----------|
A|-------------|-----------|
E|-------------|-----------|

      *  *  *  *  *

e|-15-14-15-17-18-17-15-------|-15-15-15-17-18-20-18--17h18p17--14-15-|
B|----------------------16-15-|---------------------------------------|
G|----------------------------|---------------------------------------|
D|----------------------------|---------------------------------------|
A|----------------------------|---------------------------------------|
E|----------------------------|---------------------------------------|
[ Tab from: http://www.guitartabs.cc/tabs/m/misc_soundtrack/age_of_empires_theme_tab_ver_3.html ]
e|-15-15-15----------17-18-17-15----------------|
B|----------15-15-18-------------18-15-16-15-13-|
G|----------------------------------------------|
D|----------------------------------------------|
A|----------------------------------------------|
E|----------------------------------------------|

e|-15-15-15-17-18-20-18-17h18p17-14-15-|
B|-------------------------------------|
G|-------------------------------------|
D|-------------------------------------|
A|-------------------------------------|
E|-------------------------------------|

      *  *  *  *  *

e|--------------|-----------|
B|--------------|-----------|
G|---2--5-4-2-4-|---2-5-4-2-|
D|-2------------|-2---------|
A|--------------|-----------|
E|--------------|-----------|

e|-------------|-----------|
B|-------------|-----------|
G|---2-5-4-2-4-|-4-5-4---2-|
D|-2-----------|-------5---|
A|-------------|-----------|
E|-------------|-----------|

e|-----------------------------|-----------------------------|
B|-----------------------------|-----------------------------|
G|-----------------------------|-----------------------------|
D|-0---0-0-0---0-0---0-0-0-0-0-|-0---0-0-0---0-0---0-0-0-0-0-|
A|-----------------------------|-----------------------------|
E|-----------------------------|-----------------------------|. . . END


Comments:jcrp_21@hotmail.com
Comments