Misc Soundtrack - Addams Family Theme Chords & Tabs

 

Addams Family Theme Chords & Tabs

Misc Soundtrack Chords & Tabs

Version: 2 Type: Tab 0 ratings
1 star 2 stars 3 stars 4 stars 5 stars
comments

Addams Family Theme Tab

-------------------------------------------
-------------------------------------------
-------------------------------------------
-------------------------------------------
---------------0-------------------1--2----
--------0-2-4------------------2-4---------


-------------------------------------------
-------------------------------------------
-------------------------------------------
-------------------------------------------
-------------1--2---------------------0----
--------2-4--------------------0-2-4-------
[ Tab from: http://www.guitartabs.cc/tabs/m/misc_soundtrack/addams_family_theme_tab_ver_2.html ]
-----0----0----0----0------5------9p5--------------
-----4----4----4------------------------7--3-------
---------------------------------------------------
---------------------------------------------------
---------------------------------------------------
---------------------------------------------------

---7----------3/4--------7p4------0----------5--------------
---------------------------------------2-----------4--------
------------------------------------------------------------
--------3---------------------------------------------------
------------------------------------------------------------
------------------------------------------------------------
Comments