Misc Soundtrack - 7th Heaven Theme Chords & Tabs

 

7th Heaven Theme Chords & Tabs

Misc Soundtrack Chords & Tabs

Version: 1 Type: Tab 0 ratings
1 star 2 stars 3 stars 4 stars 5 stars
comments

7th Heaven Theme Tab

   
hi i'm matt cussigh n man ma 4th tab this iz 4 all da 7th heaven fanz
out there who like 2 learn da song but don't know da tabz so here  it iz.
I THINK THERZ STRUMMING. N if u NEED 2 E-MAIL ME MA E-MAIL
ADRESS IZ EXTREAMMATT@HOTMAIL.COM   COOL

            
GTR2 CHORDS  CAPO3

      E       B       A      B
E----------------------------------2------
B----4--4--4-4---2-1-1H2-2-1-----4--------
G------------------------------4----------
D----------------------------4------------
A-----------------------------------------
E-----------------------------------------
GTR1 LEAD


     E                   B                 A             B
7TH HEAVEN, WHEN I SEE THEIR HAPPY FACES SMILIN' BACK AT ME
[ Tab from: http://www.guitartabs.cc/tabs/m/misc_soundtrack/7th_heaven_theme_tab.html ]
     E                     B                          A             B
7TH HEAVEN, I KNOW THERES NO GREATER FEELIN THAN THE LOVE OF A FAMILY

              C#M  A           E                      B
WHERE CAN YOU GO     WHEN THE WORLD DON'T TREAT YOU RIGHT?

              C#M  A               E                      B
THE ANSWER IS HOME     THAT'S THE ONE PLACE THAT YOU'LL FIND...

     E       B            A
7TH HEAVEN,  MMMMM  7TH HEAVEN

     A
7TH HEAVEN 

GTR1          
E-------------3---- 
B-------------3----
G-------------4----
D-------------5----
A-------------5----
E--7-8-7-5-3--3----

GTR2      CHORD E


I MAYBE JUST 12 YEARZ OLD BUT I KNOW A GOOD TAB MAN. THANX GUYZ DATZ IT.
Comments