Misc Soundtrack - 1942 A Love Story Chords & Tabs

 

1942 A Love Story Chords & Tabs

Misc Soundtrack Chords & Tabs

Version: 1 Type: Tab 0 ratings
1 star 2 stars 3 stars 4 stars 5 stars
comments

1942 A Love Story Tab

Ek Ladki Ko Dekha To Aisa Laga

Tabbed by: Vineet Khanna

This is one Excellent hindi song


Intro

-------------------------------------------------------1
------1----3--1-----------------------1---------1-----
--3-------------------3-----------3--------3----------
----------------------------3--------------------------
-------------------------------------------------------
-------------------------------------------------------

-------------------------------------------------------1
------1----3--1-----------------------1---------1-----
--3-------------------3-----------3--------3----------
----------------------------3--------------------------
-------------------------------------------------------
-------------------------------------------------------

Little Part that repeats throughout the song, starts after the intro above
-helps to release strings right after playing this section to mute them so it sounds like the song

---1--1------1--1---
---------------------
---3--3------3--3---
---------------------

      E      k        ladki          ko         dekha    to       aisa         laga
----6-----6-----5---6------8------5----6----8----5---8----5----6
-------------------------------------------------------------------
--------------------------------------------------------------------
--------------------------------------------------------------------
--------------------------------------------------------------------
--------------------------------------------------------------------

     E      k        ladki          ko         dekha    to       aisa         laga
----6-----8----5---6------8------5----6----8----5---8----5----6
-------------------------------------------------------------------
--------------------------------------------------------------------
--------------------------------------------------------------------
--------------------------------------------------------------------
--------------------------------------------------------------------

The lyrics for the next part change in the song but the notes are the same

           jaise           khil         taa   gulaab                   jiase

------6---6-----5---6----1----5----3-----------5----6------------
-------------------------------------------------------------------
--------------------------------------------------------------------
--------------------------------------------------------------------
--------------------------------------------------------------------
--------------------------------------------------------------------
[ Tab from: http://www.guitartabs.cc/tabs/m/misc_soundtrack/1942_a_love_story_tab.html ]
       shaa         yaar   ka   kwaab           jaise         u   ja           
-----5----6-----1----5----3------------5----6-----5---6---------
------------------------------------------------------------------
-------------------------------------------------------------------
--------------------------------------------------------------------
--------------------------------------------------------------------
--------------------------------------------------------------------

li        ki      ran        jiase              ban         mein  hi       ran
---1----5---3----3--3--5-----1------------3----1------1----------
-----------------------------------3---4---------------------------
--------------------------------------------------------------------
--------------------------------------------------------------------
--------------------------------------------------------------------



        jaise            chaand             ni       raat                    jaise
--1--1---3------------------3---1-----1--------------1----3--------
--------------4----3----4--------------------------------------------
-------------------------------------------------------------------
--------------------------------------------------------------------
--------------------------------------------------------------------
--------------------------------------------------------------------

nar                   mi          baat                 jaise             mandir
--------3-----6--------3---1------1---1-----1-------1----5----6-----
---4-------------------------------------------------------------------
-------------------------------------------------------------------
--------------------------------------------------------------------
--------------------------------------------------------------------
--------------------------------------------------------------------

     mein ho          ek                   jalta              diya        ohhhhh
---10----8-----8---8---5-----1---5----6--10---8------6--------------
-------------------------------------------------------------------
--------------------------------------------------------------------
--------------------------------------------------------------------
--------------------------------------------------------------------
--------------------------------------------------------------------


     E      k        ladki          ko         dekha    to       aisa           laga
----6-----8----5---6------8------5----6----8----5--10---5---6
-------------------------------------------------------------------
--------------------------------------------------------------------
--------------------------------------------------------------------
--------------------------------------------------------------------
--------------------------------------------------------------------





Comments