Misc Scales - Seven Modes Of The Major Scale Chords & Tabs

 

Seven Modes Of The Major Scale Chords & Tabs

Misc Scales Chords & Tabs

Version: 1 Type: Tab 0 ratings
1 star 2 stars 3 stars 4 stars 5 stars
comments

Seven Modes Of The Major Scale Tab

=======Seven Modes Of The Major Scale=======

All these modes begin on the A on the bottom E
They have a movable shape.

Ionian or Major

E----------------------
B----------------------
G----------------------
D------------4-6-7-----
A------4-5-7-----------
E--5-7-----------------



Dorian mode

E----------------------
B----------------------
G----------------------
D------------4-5-7-----
A--------5-7-----------
E--5-7-8---------------



Phrygian

E----------------------
B----------------------
G----------------------
D--------------5-7-----
A--------5-7-8---------
E--5-6-8---------------



Lydian
[ Tab from: http://www.guitartabs.cc/tabs/m/misc_scales/seven_modes_of_the_major_scale_tab.html ]
E----------------------
B----------------------
G----------------------
D------------4-6-7-----
A------4-6-7-----------
E--5-7-----------------



Mixolydian

E----------------------
B----------------------
G----------------------
D------------4-5-7-----
A------4-5-7-----------
E--5-7-----------------



Aeolian

E----------------------
B----------------------
G----------------------
D--------------5-7-----
A--------5-7-8---------
E--5-7-8---------------



Locrian

E----------------------
B----------------------
G----------------------
D---------------5-7----
A--------5-6-8---------
E--5-6-8---------------


* Try playing th phrygian mode over a progression of 
Am E and C for a real spanish feel. or Just over A+A#

Experiment with the rest...
I'll do some other examples chord progressions and scales later.

rodan@another.com




Comments