Misc Scales - Neo Classical Scale Chords & Tabs

 

Neo Classical Scale Chords & Tabs

Misc Scales Chords & Tabs

Version: 1 Type: Tab 0 ratings
1 star 2 stars 3 stars 4 stars 5 stars
comments

Neo Classical Scale Tab


SONG:  Classical Scale
ARTIST:  Lance Mohesky


*************************************************
This is just an exercise to help you understand the neo-classical
scale.  Practice and get comfortable and soon you can make
your own solos and shock your neighborhood.  This scale is very
similiar to what Yngwie Malmsteen uses.  Below are some scales
and some solo riffs that I created.  Have fun!
*************************************************

|-----------------------------11-14-12|12-9----------------------------|
|----------------------10-13----------|------11-8-----------------------|
|----------------8-11-----------------|------------9-6------------------|
|----------7-10-----------------------|----------------8-5--------------|
|-----6-9-----------------------------|--------------------7-4----------|
|5-8----------------------------------|-------------------------6-3-0-1-|

[ Tab from: http://www.guitartabs.cc/tabs/m/misc_scales/neo_classical_scale_tab.html ]
|0-7-4-0-8-5-0-8-7-0-10-7-0-12-8-0-13-10-0-15-12-0-12-13-10-13-8-13---13---13------|
|------------------------------------------------------------------------12---10----9-10|
|----------------------------------------------------------------------------------------|
|----------------------------------------------------------------------------------------|
|----------------------------------------------------------------------------------------|
|----------------------------------------------------------------------------------------|

|-------------------|---------------------------------------------------------------------|
|-------------------|---------------------------------------4----5-4----------------------|
|-------------------|--------5-9-5--------------------5-------5------4-5-2-4-------------|
|-------------------|------7-------7-------8-5-----7----7---------------------2-4-0-2~~-|
|-----4-5-7-5-4----|----7-----------7-5-4-----7-8----------------------------------------|
|5-7------------7-5|5-8------------------------------------------------------------------|





Copyright 2002 ©  All Rights Reserved.
Comments