Misc Scales - Kickin Scale Chords & Tabs

 

Kickin Scale Chords & Tabs

Misc Scales Chords & Tabs

Version: 1 Type: Tab 0 ratings
1 star 2 stars 3 stars 4 stars 5 stars
comments

Kickin Scale Tab

This is a kinda kickin' scale...play it

e--5-------------------------------------------5-|
B----8-5-----------------------------------5-8---|
G--------7-5---------------------------5-7-------|
D------------7-5-------------------5-7-----------|
A----------------7-6-5-------5-6-7---------------|
E----------------------8-5-8---------------------|

THEN
[ Tab from: http://www.guitartabs.cc/tabs/m/misc_scales/kickin_scale_tab.html ]
e----------------------------8---------------------------|
B--5-8----------------8---10---10-8----------------------|
G-----5-7----5--7/h/9---9-----------9-7------------------|
D--------5-7----------------------------7-5--------------|
A-------------------------------------------5-3----------|
E-----------------------------------------------3/s/5-5--|

the 3/s/5-5 thing means slide from 3 to 5 then hit 5 again.

THAT'S ALL....ROCK ON!!!
Comments