Misc Scales - Diatonic Sixth Sequence Chords & Tabs

 

Diatonic Sixth Sequence Chords & Tabs

Misc Scales Chords & Tabs

Version: 1 Type: Tab 0 ratings
1 star 2 stars 3 stars 4 stars 5 stars
comments

Diatonic Sixth Sequence Tab

This is something known as the Diatonic 6th Sequence. I found it in Guitar One Magazine,
And i thought it would be nice to share it with other people. Contact me at:
guitargod8852@hotmail.com.
[ Tab from: http://www.guitartabs.cc/tabs/m/misc_scales/diatonic_sixth_sequence_tab.html ]
|-------------------------------------------------------|
|---------------------------------------------8---------|
|-------------------------7------9-----10---------------|
|-----7------9-----10---------------7------9-----10-----|
|---------------7------8-----10-------------------------|
|--8-----10---------------------------------------------|

|---------7-----8--7---------------------------------------|
|--10--------------------10------8-------------------------|
|------7-----9--------7----------------10-----9------7-----|
|----------------------------10-----9------7---------------|
|------------------------------------------------10-----8--|
|----------------------------------------------------------|
Comments