Misc Scales - Boogie Twelve Bar Blues Chords & Tabs

 

Boogie Twelve Bar Blues Chords & Tabs

Misc Scales Chords & Tabs

Version: 1 Type: Tab 0 ratings
1 star 2 stars 3 stars 4 stars 5 stars
comments

Boogie Twelve Bar Blues Tab

			  ><


E-------------------------------------------------------------------------------------
B-------------------------------------------------------------------------------------
G-------------------------------------------------------------------------------------
D--------4-5-4-----------4-5-4-----------4-5-4-----------4-5-4------------------------
A----4-7-------7-4---4-7-------7-4---4-7-------7-4---4-7-------7-4--------------------
E--5---------------5---------------5---------------5----------------------------------
[ Tab from: http://www.guitartabs.cc/tabs/m/misc_scales/boogie_twelve_bar_blues_tab.html ]
E-------------------------------------------------------------------------------------
B-------------------------------------------------------------------------------------
G--------4-5-4-----------4-5-4--------------------------------------------------------
D----4-7-------7-4---4-7-------7-4-------4-5-4-----------4-5-4------------------------
A--5---------------5-----------------4-7-------7-4---4-7-------7-4--------------------
E----------------------------------5---------------5----------------------------------

E-------------------------------------------------------------------------------------
B-------------------------------------------------------------------------------------
G--------6-7-6-----------4-5-4--------------------------------------------------------
D----6-9-------9-6---4-7-------7-4-------4-5-4----------------------------------------
A--7---------------5-----------------4-7-------7-4-5-5-6-7----------------------------
E----------------------------------5--------------------------------------------------



rodan@another.com
Comments