Misc Scales - Blues Scale Chords & Tabs

 

Blues Scale Chords & Tabs

Misc Scales Chords & Tabs

Version: 1 Type: Tab 0 ratings
1 star 2 stars 3 stars 4 stars 5 stars
comments

Blues Scale Tab

   
Some Scales

These are just the downward progressions, you can play them back up and 
connect them together, they do fit.
[ Tab from: http://www.guitartabs.cc/tabs/m/misc_scales/blues_scale_tab.html ]
e ----------------------0-3--------------------------3-5-------
b ------------------1-3--------------------------3-5-----------
g --------------0-2--------------------------2-5---------------
d ----------0-2--------------------------2-5-------------------
a ------0-3--------------------------3-5-----------------------
e --0-3--------------------------3-5---------------------------
   E key (repeats at 12th fret)  G key (repeats at 15th fret)
e --------------------------5-8---------------------------8-10-
b ----------------------5-8--------------------------8-10------
g ----------------5-7-8--------------------------7-9-----------
d ------------5-7---------------------------7-10---------------
a ------5-6-7--------------------------7-10--------------------
e --5-8---------------------------8-10-------------------------
    A key (repeats at 17th fret)  C key (repeats at 19th fret)
e -------------------------------10-12-------------------------
b -------------------------10-13-------------------------------
g --------------------9-12-------------------------------------
d --------------10-12------------------------------------------
a --------10-12------------------------------------------------
e --10-12------------------------------------------------------
    D key

These all connect together so you can go up and down the neck, enjoy!

Comments - JesusPnkr@aol.com
Comments