Misc Scales - 4 Scales Chords & Tabs

 

4 Scales Chords & Tabs

Misc Scales Chords & Tabs

Version: 1 Type: Tab 1 rating
1 star 2 stars 3 stars 4 stars 5 stars
comments

4 Scales Tab

I = Index Finger         Here are cool scales and awesome warm-ups.
M = Middle Finger        Pratice these faster and faster to speed
R = Ring Finger          up your fingers. Pratice them up and then
P = Pinky Finger         back down.


e[]---------------------5-8-[]
B[]-----------------5-8-----[]
G[]-------------5-7---------[]
D[]---------5-7-------------[]
A[]-----5-7-----------------[]
E[]-5-8---------------------[]
    I P I R I R I R I P I P
[ Tab from: http://www.guitartabs.cc/tabs/m/misc_scales/4_scales_tab.html ]
e[]-------------------------5-8-[]
B[]---------------------5-8-----[]
G[]---------------5-7-8---------[]
D[]-----------5-7---------------[]
A[]-----5-6-7-------------------[]
E[]-5-8-------------------------[]
    I P I M R I R I R P I P I P

e[]-----------------[]
B[]-----------------[]
G[]-----------2-4-5-[]
D[]-----2-3-5-------[]
A[]-3-5-------------[]
E[]-----------------[]
    M P I M P I R P

e[]-----------------[]
B[]-----------------[]
G[]-----------------[]
D[]-----------2-4-5-[]
A[]-----2-3-5-------[]
E[]-3-5-------------[]

Tabbed By T.J. Williams - khildofthekorn@msn.com -
Comments