Misc Riffs - Ryan13579 Mexican Song Complete Chords & Tabs

 

Ryan13579 Mexican Song Complete Chords & Tabs

Misc Riffs Chords & Tabs

Version: 1 Type: Tab 0 ratings
1 star 2 stars 3 stars 4 stars 5 stars
comments

Ryan13579 Mexican Song Complete Tab

yo wats up this is my first tab so yeah
slide=s

lead
e-0--1--3---1--0--x4------------------------------------
b--------------------------------------------------------
g---------------------------------------------------------
d----------------------------------------------------------
a---------------------------------------------------------
e---------------------------------------------------------
[ Tab from: http://www.guitartabs.cc/tabs/m/misc_riffs/ryan13579_mexican_song_complete_tab.html ]
e------------------0-0-3-3-7s8s7-------7-7-12-12-7-7-5-5-
b-0--0--1--1--0-0----------------------------------------
g--------------------------------------------------------
d--------------------------------------------------------
a--------------------------------------------------------
e--------------------------------------------------------


e-3-3-3-3-2-----------------------------------------------
b--------------------------------------------------------
g--------------------------------------------------------
d--------------------------------------------------------
a--------------------------------------------------------
e--------------------------------------------------------

aiight have fun with it. 
peace out _~WuN~_
Comments