Misc Riffs - Rairbreed1 12 Bar Blues Chords & Tabs

 

Rairbreed1 12 Bar Blues Chords & Tabs

Misc Riffs Chords & Tabs

Version: 1 Type: Tab 3 ratings
1 star 2 stars 3 stars 4 stars 5 stars
comments

Rairbreed1 12 Bar Blues Tab

12 bar blues A.K.A  shuffle in E   

(  ) optional note

e--------------------------------------------------------------------------
B--------------------------------------------------------------------------
G--------------------------------------------------------------------------
D--------------------------2--2--4--4--2--2--4--4--------------------------
A--2--2--4--4--2--2--4--4--0--0--0--0--0--0--0--0---2--2--4--4--5--5--4--4-
E--0--0--0--0--0--0--0--0---------------------------0--0--0--0--0--0--0--0-

e------------------------------------------------------------------------------------
B-------------------------------------------------------------------------------------
G-------------------------------------------------------------------------------------
D--2--2--4--4--2--2--4--4--5--5--4--4-------------------------------------------------
A--0--0--0--0--0--0--0--0--0--0--0--0--2--2--4--4--2--2--4--4--2--2--4--4--5--5--4--4-
E--------------------------------------0--0--0--0--0--0--0--0--0--0--0--0--0--0--0--0-
[ Tab from: http://www.guitartabs.cc/tabs/m/misc_riffs/rairbreed1_12_bar_blues_tab.html ]
e-------------------------------------------------------------------------------------------
B-------------------------------------------------------------------------------------------
G-------------------------------------------------------------------------------------------
D--4--4--4--4--4--4--4--4--2--2--4--4--2--2--4--4-----------------------------2--3--4---(4)-
A--2--2--2--2--2--2--2--2--0--0--0--0--0--0--0--0--2--2--4--4--2--2--4--4--2--0--1--2---(2)-
E--------------------------------------------------0--0--0--0--0--0--0--0--0----------------

e-----------------------------------------------------------------0---------------------------
B-----------------------------------------------------------------3---------------------------
G-----------------------------------------------------------------1---------------------------
D-----------------------------------------------------------------2---------------------------
A--2--2--4--4--2--2--4--4----2--0---------------------------------2---------------------------
E--0--0--0--0--0--0--0--0----0-----3--0-------------------------------------------------------

tabbed by casey
Comments