Misc Riffs - Iamthesanitaruim My Solo Chords & Tabs

 

Iamthesanitaruim My Solo Chords & Tabs

Misc Riffs Chords & Tabs

Version: 1 Type: Tab 1 rating
1 star 2 stars 3 stars 4 stars 5 stars
comments

Iamthesanitaruim My Solo Tab

--0--3--5--0--3--5--0--3--5--0--3--5--0--3--5--0---------|--3bfull------------------------------------------|
---------------------------------------------------------|--------------------------------------------------|
---------------------------------------------------------|--------------------------------------------------|
---------------------------------------------------------|--------------------------------------------------|
---------------------------------------------------------|--------------------------------------------------|
---------------------------------------------------------|--------------------------------------------------|
[ Tab from: http://www.guitartabs.cc/tabs/m/misc_riffs/iamthesanitaruim_my_solo_tab.html ]
--5--3--1--0-----------------------------------------------|-----------------------------------------------|
----------------3-5-3--1--0--------------------------------|-----------------------------------------------|
-------------------------------2-4-2--0--2--0--------------|-----------------------------------------------|
--------------------------------------------------3--2--1--|--2--0-----------------------------------------|
-----------------------------------------------------------|---------3--2--0-2-0---------------------------|
-----------------------------------------------------------|------------------------0--3--5--0--3--5--0--3-|

---------|--------------------------------------------------|-----------------------------------------------|
---------|--------------------------------------------------|-----------------------------------------------|
---------|--------------------------------------------------|-----------------------------------------------|
---------|--------------------------------------------------|-----------------------------------------------|
---------|--------------------------------------------------|--3--2-----------3--2------------3--2----------|
--5--0---|--3bfull------------------------------------------|---------5-7-5---------3--5--3---------5--7--5-|

-----------------|3v----------------------------------------------|
-----------------|------------------------------------------------|
-----------------|------------------------------------------------|
-----------------|------------------------------------------------|
--3--2-----------|------------------------------------------------|
---------3--5--3-|0-----------------------------------------------|
Comments