Misc Riffs - Darren316 Skipping Chords & Tabs

 

Darren316 Skipping Chords & Tabs

Misc Riffs Chords & Tabs

Version: 1 Type: Tab 2 ratings
1 star 2 stars 3 stars 4 stars 5 stars
comments

Darren316 Skipping Tab

By: Darren (s3_17)

String Skipping 1

----------------------------------
----------------------------------
-------4-------5-------6-------7--
---3-------4-------5-------6------
-----2-------3-------4-------5----
-1-------2-------3-------4--------

String Skipping 2

----------------------------------
---------------3---------------4--
-------2---7-----------3---8------
---7---------------8--------------
---------5---5-----------6---6----
-5---5-----------6---6------------

Triplet Practise (I lied when I said I'd do none of that 1-2-3-4 stuff)
[ Tab from: http://www.guitartabs.cc/tabs/m/misc_riffs/darren316_skipping_tab.html ]
-----------------------------------------------
-----------------------------------------------
-----------------------------------------------
-----------------------------------------------
-----------------------------------------------
-1-234-2-341-3-412-4-123-----------------------
|_| |_| |_| |_|
t t t t

This one might take a little explanation. Where we have "1-234" think of the 1 as one note, and the 234 as one note. So the 2, the 3 and the 4 are all one third of a note.

Triplet Practise AND String Skipping 

-------------------------------------------------
-------------------------------------------------
-------------------------------------------------
---432---432---432---432---543---543---543---543-
-------------------------------------------------
-1-----2-----3-----4-----2-----3-----4-----5-----
|_| |_| |_| |_| |_| |_| |_| |_|
t t t t t t t t
Comments