Misc Riffs - Darren316 Legato Chords & Tabs

 

Darren316 Legato Chords & Tabs

Misc Riffs Chords & Tabs

Version: 1 Type: Tab 0 ratings
1 star 2 stars 3 stars 4 stars 5 stars
comments

Darren316 Legato Tab

By: Darren
[ Tab from: http://www.guitartabs.cc/tabs/m/misc_riffs/darren316_legato_tab.html ]
e||-----------------------------------------------------------------------------||
B||-------------------------------------------------------------1/2h3/4h5/6h7/8-||
G||----------------------------------------------1/2h3/4h5/6h7/8----------------||
D||-------------------------------1/2h3/4h5/6h7/8-------------------------------||
A||----------------1/2h3/4h5/6h7/8----------------------------------------------||
E||-1/2h3/4h5/6h7/8-------------------------------------------------------------||

Legato (Con't)

e||-1/2h3/4h5/6h7/8/7p6/5p4/3p2/1----------------------------------------------||
B||------------------------------8/7p6/5p4/3p2/1-------------------------------||
G||---------------------------------------------8/7p6/5p4/3p2/1----------------||
D||------------------------------------------------------------8/7p6/5p4/3p2/1-||
A||-------------------------------This-String-Not-Shown-for-Sake-of-Space------||
E||------This-String-Not-Shown-for-Sake-of-Space-------------------------------||
Comments