Misc Riffs - Bryan666 My Song Chords & Tabs

 

Bryan666 My Song Chords & Tabs

Misc Riffs Chords & Tabs

Version: 1 Type: Tab 1 rating
1 star 2 stars 3 stars 4 stars 5 stars
comments

Bryan666 My Song Tab

p=pull string  Intro can be played with multiple guitars 
(i think the intro with multiple guitars it sounds cool)

Intro:
[ Tab from: http://www.guitartabs.cc/tabs/m/misc_riffs/bryan666_my_song_tab.html ]
|-------------|
|-------------|
|-------------|           10x
|-------------|
|-------------|
|--0-0-0-1----| 




|--------------|
|--------------|
|--------------|
|---2-2-2--------|
|---2-2-2--------|
|---0-0-0-----2 p----|


well thats all i have so far send me mail at hhh3766@aol.com or opinions or stuff for other tizzabs
Comments