Misc Praise Songs - Majesty Chords & Tabs

 

Majesty Chords & Tabs

Misc Praise Songs Chords & Tabs

Version: 1 Type: Tab

Majesty Tab

This is my first tab!! Let it be used to show the Glory of our God. Please rate well - 
does sound good and is easy!

|--------------------------------------------|
|-5-0-2-0-2-2-9b-7-7-0-2-3-2-----------------|
|--------------------------------------------|
|--------------------------------------------|
|--------------------------------------------|
|--------------------------------------------|
[ Tab from: http://www.guitartabs.cc/tabs/m/misc_praise_songs/majesty_tab.html ]
|--------------------------------------------|
|-5-0-2-0-2-2-9b-7-7-0-2-3-2-9b-7-7-9-7-9-10-|
|--------------------------------------------|
|--------------------------------------------|
|--------------------------------------------|
|--------------------------------------------|

|-0-7-99-9-7-4-5-5-4-0-2-0-0-----------------|
|------------------------------2-3-----------|
|--------------------------------------------|
|--------------------------------------------|
|--------------------------------------------|
|--------------------------------------------|

|-0-7-99-9-7-4-5-5-4-0-2-5-5-4-5-------------|
|--------------------------------------------|
|--------------------------------------------|
|--------------------------------------------|
|--------------------------------------------|
|--------------------------------------------|