Misc Performance - Metallica - Robert Trujillos Bass Solo Chords & Tabs

 

Metallica - Robert Trujillos Bass Solo Chords & Tabs

Misc Performance Chords & Tabs

Version: 1 Type: Bass Tab

Metallica - Robert Trujillos Bass Solo Bass Tab

   
E||--------------------------------------------------------------|
B||--------------------------------------------------------------|
G||--------------------------------------------------------------|
D||--------------------------------------------------------------|
A||--5--7t--------------------------------------5-------5--7--7--|
E||---------7s0----------0----0--0--0--0--5--7-----7-------------|


  E  E  E  E  E  E  E   E     E     E  E  E  E  E  E  E  E   
----------------------------------------------------------|
----------------------------------------------------------|
----------------------------------------------------------|
-----5-----------5--7b--5------------------5--------------|
--7-----7--5--7--------------7----7--7--7-----7--5--------|
----------------------------------------------------7--5--|


  E  E  E  E  E  E  E  E     E     E  E  E  E  E  E  E  E   
---------------------------------------------------------|
---------------------------------------------------------|
---------------------------------------------------------|
---------------------------------------------------------|
-----------5--5--5--7--7----7----7--5--------------------|
--7--7--7------------------------------7--5--0--0--3--0--|


  E  E  E  E  E  E  E  E     E  E  E  E  E     E  E  E  E  E  E  E  E         
---------------------------------------------------------------------|
---------------------------------------------------------------------|
---------------------------------------------------------------------|
---------------------------------------------------------------------|
--------5-----5--55--6--66--7--77----7--5----------------------------|
--5--7-----7---------------------------------7--5--0--0--3--0--------|

[ Tab from: http://www.guitartabs.cc/tabs/m/misc_performance/metallica_robert_trujillos_bass_solo_btab.html ]
  E  E  E  E  E  E  E  E     E  E  E  E  E      E   E   E   E   E   E   E   E   
-----------------------------------------------------------------------------|
-----------------------------------------------------------------------------|
---------------------------------------------------------------------12------|
-----------------------------------------------------12------12--14------14--|
--------5-----5--55--6---66--7--77---------12--14------14--------------------|
--5--7-----7-----------------------------------------------------------------|


   E   E      E   E   E   E     E  E  E  E  E   E  E   E   
----------|------------------|----------------------------|
----------|------------------|----------------------------|
----------|------------------|----------------------------|
--12--14--|--14--12----------|--------7--9--9b--9--9b--9--|
----------|----------14--12--|--7--9----------------------|
----------|------------------|----------------------------|


  E  E  E  E  E  E   E  E      E  E  E  E     E  E  E  E  E  E  E  E   
----------------------------|--------------|--------------------------|
----------------------------|--------------|--------------------------|
----------------------------|--------------|--------------------------|
--9--7-----7--9--9b--9--9b--|--9--9--7-----|--------------------------|
--------9-------------------|-----------9--|-----------------------5--|
----------------------------|--------------|--0--0--3--0--0--5--7-----|


  E  E  E  E     E  E  E     E  E     E  E  E    
--------------|-----------|--------|-----------||
--------------|-----------|--------|-----------||
--------------|--9--9--9--|--------|-----------||
--------------|--9--9--9--|--------|-----------||
-----5--7--7--|--7--7--7--|--------|-----------||
--7-----------|-----------|--2--2--|--2--2--0--||