Misc Performance - Metallica - Robert Trujillo Bass Solo Chords & Tabs

 

Metallica - Robert Trujillo Bass Solo Chords & Tabs

Misc Performance Chords & Tabs

Version: 1 Type: Bass Tab

Metallica - Robert Trujillo Bass Solo Bass Tab

G|------------------|-----------------------|---------------------------|
D|------------------|-----------------------|---------------------------|
A|-0/7----------7\0-|-----------------------|---------5-7-7------7------|
E|------------------|-0----0----0----0----0-|-5-7-5-7-------------------|
B|------------------|-----------------------|---------------------------|

G|----------------------|---------------------|---------------------------|
D|----5---------5-8-7-5-|-----------5---------|---------------------------|
A|-7----7-5--7----------|-5-7-5-7-5----7----7-|---------------------------|
E|----------------------|---------------------|-3-7-5-7-5---3-6--6--5-3-0-|
B|----------------------|---------------------|---------------------------|

G|------------------|-------------------------|----------------------|
D|------------------|-------------------------|----------------------|
A|------------------|---------------------5-5-|-7-7-5----------------|
E|------------------|----5-3-5-3-5-7--7-7-----|-------7-5------------|
B|-5-----5\0--5---5-|-5-----------------------|-----------7-5--5-0---|
[ Tab from: http://www.guitartabs.cc/tabs/m/misc_performance/metallica_robert_trujillo_bass_solo_btab.html ]
G|-------------------------|-------------------------------12-----|
D|-------------------------|-------------12-14-12-14-12-14----14--|
A|----------------------5-5|-7-7-5-7-5-7--------------------------|
E|----5-3-5-3-5-7--7-7-----|--------------------------------------|
B|-5-----------------------|--------------------------------------|

G|--------------------------------------|---------------------------------|
D|-12H14---14---14-12-------------------|---------------------------------|
A|--------------------14-12-14-12-------|-------------12b-------------12B-|
E|--------------------------------17-15-|-12-15-12-15-----12-15-12-15-----|
B|----------------------------------------|-------------------------------|

G|---------------------------------|-------------------|-----------------|
D|---------------------------------|-------------------|-----------------|
A|-------------12-13-13-13-12------|-------------------|-----------------|
E|-12-15-12-15----------------15-12|-12-12-12\0--------|-----------------|
B|---------------------------------|------------5\3--5-|-0----0--0-5-6-8-|


G|----------------|----------------|--------------------|-------------|
D|----------------|----------------|--------------------|-------------|
A|----------------|----------------|-----------------5-7|-7--7--7--7--|
E|----------------|-6--------------|---------5-7-5-7----|-------------|
B|-0----0--0-5-6-8|---8--0--0-5-6-8|-5--5--8------------|-------------|

G|--9~~~~~~~~ -|--9~~~~~~~~ -|
D|--9~~~~~~~~ -|--9~~~~~~~~ -|
A|--7~~~~~~~~ -|--7~~~~~~~~ -|
E|-------------|-------------|
B|-------------|-------------|