Misc Movies - Top Gun Solo Chords & Tabs

 

Top Gun Solo Chords & Tabs

Misc Movies Chords & Tabs

Version: 1 Type: Tab 0 ratings
1 star 2 stars 3 stars 4 stars 5 stars
comments

Top Gun Solo Tab

   
Top Gun - Anthem
Steve Stevens & Harold Faltermeyer

(see: http://www.justchords.com/guitar/tgsolo.html for a "mid" file)

 B
8   = bend 1
 B
7   = bend 1/2
R
 17 = release 1
r
 17 = release 1/2



E---------------------------------------------------------------
B---------------------------------------------------------------
G---------------4-5----4/5---3----(3)----(3)-0------------------
D----------------------------------------------10---------------
A--3~~~~~~~~~~--------------------------------------------------
E---------------------------------------------------------------

E--------------------------------------------------------------
B--------------------------------------------------------------
G---------------------------------7--7--7----------------------
D--8--7----------------------B---------------------------------
A--------8--8--8--7--8--10--8-10-------------------------------
E--------------------------------------------5--8--------------

E--------------------12-13-14-15-10/12-|-12------10----13-12--10-----B----
B------------------13------------------|---13------11-------13--11-13-11--
G----------9--12-12--------------------|-----12-9----10-------------------
D-------10--10-------------------------|----------------------------------
A---7-10-------------------------------|----------------------------------
E-8------------------------------------|----------------------------------

E---------------------|-----------------------------------------
B---b-------b------b--|-----------------------------------------
G--7---7-5-7---5--7---|--5-7---5--------------------------------
D---------------------|------8---7-8-5-7---------------5-5------
A---------------------|------------------8-5-10-10-5------------
E---------------------|-----------------------------------------

E-------------------------------|------------------------------
B-------------------------------|--b------b------b------b------
G-------------------------------|-8------8------8------8-------
D-------------------------------|---10-8---10-8---10-8---10-8--
A-6-7-----6-7-----6-7-----6-7---|------------------------------
E-----8-6-----8-6-----8-6-----8-|------------------------------
[ Tab from: http://www.guitartabs.cc/tabs/m/misc_movies/top_gun_solo_tab.html ]
E--------------------------------|------------------------------------------------
B--------------------------------|------------------------------------------------
G-8-9-----8-9-----8-9-----8-9-10-|-10-12-10-8--10-12-10-8--10-12-10-8--10-12-10-8-
D----10-8----10-8----10-8--------|------------------------------------------------
A--------------------------------|------------------------------------------------
E--------------------------------|------------------------------------------------

E--------------------------------------|------------------------------------------
B-17--15----17-17-15----17---15--------|--17--15----17-17-15----17--15--17--------
G---17--15----------15---------15--15--|----17--15----------15----17--15----------
D---------17----------17---17----17----|----------17----------17------------------
A--------------------------------------|------------------------------------------
E--------------------------------------|------------------------------------------

E----b----r----------------------------------------------------
B--17-(18)-17--15--17------15----------------------------------
G----------------------17---------15--17--14-------------------
D------------------------------------------------15---3-------
A--------------------------------------------------------------
E--------------------------------------------------------------


Here we go for the Eddie's tapping style...
    T        T              T              T             T
E--------------------------------------------------------------
B--------------------------------------------------------------
G--12-0-4-7-12-7-4--0-4-7--12-7-4--0-4-7--12-7-4--0-4-7-12-7---
D--------------------------------------------------------------
A--------------------------------------------------------------
E--------------------------------------------------------------

    T        T          T        T          T          T
E---------|----------|--------|----------|----------|----------
B---------|----------|--------|----------|----------|----------
G--10-2-5-|-10-0-2-5-|-10-7-4-|-12-0-4-7-|-14-0-4-7-|-16-0-4-7-
D---------|----------|--------|----------|----------|----------
A---------|----x6----|--------|----x4----|----x3----|----x4----
E---------|----------|--------|----------|----------|----------

   T          T
E----------|------------
B----------|------------
G-17-0-4-7-|-19-0-4-7---
D----------|------------
A----x3----|-----x2-----
E----------|------------

Comments R welcome!! :)
Comments