Misc Movies - My Favorite Accident Chords & Tabs

 

My Favorite Accident Chords & Tabs

Misc Movies Chords & Tabs

Version: 1 Type: Tab 0 ratings
1 star 2 stars 3 stars 4 stars 5 stars
comments

My Favorite Accident Tab

Here's the basic synth tune on guitar.


e--12---9---7---9---7---5---7---9---5--------7--------------------------------------------------------------------------------
B---------------------------------------5-------------------------------------------------------------------------------------
G-----------------------------------------------------------------------------------------------------------------------------------
D-----------------------------------------------------------------------------------------------------------------------------------
A-----------------------------------------------------------------------------------------------------------------------------------
E-----------------------------------------------------------------------------------------------------------------------------------
[ Tab from: http://www.guitartabs.cc/tabs/m/misc_movies/my_favorite_accident_tab.html ]
e--12---9---7---9---7---5---7---9---7---9---7---9---7---9---7---9---7---9---10-------------------------------------------
B-----------------------------------------------------------------------------------------------------------------------------------
G-----------------------------------------------------------------------------------------------------------------------------------
D-----------------------------------------------------------------------------------------------------------------------------------
A-----------------------------------------------------------------------------------------------------------------------------------
E-----------------------------------------------------------------------------------------------------------------------------------

e--12---9---7---9---7---5---7---9---5--------7--------------------------------------------------------------------------------
B---------------------------------------5-------------------------------------------------------------------------------------
G-----------------------------------------------------------------------------------------------------------------------------------
D-----------------------------------------------------------------------------------------------------------------------------------
A-----------------------------------------------------------------------------------------------------------------------------------
E-----------------------------------------------------------------------------------------------------------------------------------

e--12---9---7---9---7---5---7---9---7---12v----------------------------------------------------------------------------------
B-----------------------------------------------------------------------------------------------------------------------------------
G-----------------------------------------------------------------------------------------------------------------------------------
D-----------------------------------------------------------------------------------------------------------------------------------
A-----------------------------------------------------------------------------------------------------------------------------------
E-----------------------------------------------------------------------------------------------------------------------------------
Comments