Misc Irish - Fields Of Athenry Chords & Tabs

 

Fields Of Athenry Chords & Tabs

Misc Irish Chords & Tabs

Version: 1 Type: Tab 1 rating
1 star 2 stars 3 stars 4 stars 5 stars
comments

Fields Of Athenry Tab

   
***Fields of Athenry***

   G   
By Lonely prison wall
   C                 G    D
I Heard a young girl call-ing
G                C           D
Michael they are taking you away
        G                 C
For you stole Trevelyan's Corn
       G                   D
So the young might see the morn
                       D7             G
Now a prison ship lies waiting in the bay

CHORUS

G     C     G              Em
Low...Lie...the fields, of Athenry
      G                                    D
Where once we watched the small free birds fly
     G              C
Our love was on the wing,
       G                   D 
We had dreams and songs to sing
                           D7        G  
It's so loneyly, round the fields of Athenry


Lead:

Verse
e----------------------------------------------------------------------------------------------------
b-----------------10--10 11 11 11 13 10--11-10-------13-13 13 10 11 13 11 10-------------------------
g-----------10 12-----------------------------10 12--------------------------12----------------------
d--10 10 10 -----------------------------------------------------------------------------------------
a----------------------------------------------------------------------------------------------------
e----------------------------------------------------------------------------------------------------
[ Tab from: http://www.guitartabs.cc/tabs/m/misc_irish/fields_of_athenry_tab.html ]
e----------------------------------------------------------------------------------------------------
b---10 11 13 13 13 10 11--13 11 10-------10----------------10 11 10----------------------------------
g-------------------------------------10----12-------12 12----------12 10 9 10-----------------------
d----------------------------------10-------------10-------------------------------------------------
a----------------------------------------------------------------------------------------------------
e----------------------------------------------------------------------------------------------------

Chorus
e-----10~~~------------------------------------------------------------------------------------------
b--13-------13--------------10~~----------------10-11-13----10-11-13-13-13-10-11--13-11-10-----------
g---------------10----10-12------12 10----10-12----------12------------------------------------------
d------------------10------------------10------------------------------------------------------------
a----------------------------------------------------------------------------------------------------
e----------------------------------------------------------------------------------------------------

e----------------------------------------------------------------------------------------------------
b--------10----------------10 11 10------------------------------------------------------------------
g-----10----12-------12 12----------12 10 9 10-------------------------------------------------------
d--10------------10----------------------------------------------------------------------------------
a----------------------------------------------------------------------------------------------------
e----------------------------------------------------------------------------------------------------

First tab,
Take it easy on me...
Hope You Enjoy!
Comments