Misc Folk - Red River Valley Chords & Tabs

 

Red River Valley Chords & Tabs

Misc Folk Chords & Tabs

Version: 1 Type: Tab 0 ratings
1 star 2 stars 3 stars 4 stars 5 stars
comments

Red River Valley Tab

This is an old well loved folk song, Red River Valley and also one of the very first ones I learnt to play. Second one, in fact. Its quite simple and easy to memorize.

[ Tab from: http://www.guitartabs.cc/tabs/m/misc_folk/red_river_valley_tab.html ]
E:--------0--0------------------------0----0-3--1-0---------------
B:------1------3-1--3-1---1---------1----1----------3-------------
G:----0-----------------2---------0-------------------------------
D:----------------------------------------------------------------
A:----------------------------------------------------------------
E:----------------------------------------------------------------



E:----3-1-0--0--------0-3-1---------------------0-----------------
B:-------------3-1--3--------------------0-1-3----3-1-------------
G:--------------------------------2-2-0---------------------------
D:----------------------------------------------------------------
A:----------------------------------------------------------------
E:----------------------------------------------------------------
Comments