Misc Computer Games - Tetris Theme Chords & Tabs

 

Tetris Theme Chords & Tabs

Misc Computer Games Chords & Tabs

Version: 3 Type: Tab 0 ratings
1 star 2 stars 3 stars 4 stars 5 stars
comments

Tetris Theme Tab

   
-----------------------------------------------------------------
			    Tetris Theme
-----------------------------------------------------------------
Tabbed by: rob and daniel

Tuning: standard

Note: this is just the lead guitar and none of this song goes
      into the double digit frets, so just play it fast.

e|-------------------------------------------------------4-4-3-|
B|----4444----2222---------------------4444----2222-----4------|
G|--------4444----33334444111133333333-----4444----33334-------|
D|-------------------------------------------------------------|
A|-------------------------------------------------------------|
E|-------------------------------------------------------------|

e|--------------------------------04420----------------|
B|----4--2------42----24-------3h4-----4-42------24----|
G|-----34-431-14--4334--411-------------4---43-34--411-|X2
D|-----------------------------------------------------|
A|-----------------------------------------------------|
E|-----------------------------------------------------|

e|-------------------------------------------------------4-4-3-|
B|----4444----2222---------------------4444----2222-----4------|
G|--------4444----33334444111133333333-----4444----33334-------|
D|-------------------------------------------------------------|
A|-------------------------------------------------------------|
E|-------------------------------------------------------------|
[ Tab from: http://www.guitartabs.cc/tabs/m/misc_computer_games/tetris_theme_tab_ver_3.html ]
e|--------------------------------04420-------------------|
B|----4--2------42----24-------3h4-----4-42------24----4~-|
G|-----34-431-14--4334--411-------------4---43-34--411----|
D|--------------------------------------------------------|
A|--------------------------------------------------------|
E|--------------------------------------------------------|

e|---------------------------------------------|
B|---------------------------------------------|
G|----4--43-3h4p3-1-0------4--43-3h4p3-1-0-----|
D|-----6--------------64----6--------------356-|
A|------6------------6--6----6------------6----|
E|---------------------------------------------|

e|-------------------------------------------------------4-4-3-|
B|----4444----2222---------------------4444----2222-----4------|
G|--------4444----33334444111133333333-----4444----33334-------|
D|-------------------------------------------------------------|
A|-------------------------------------------------------------|
E|-------------------------------------------------------------|

e|--------------------------------04420----------------|
B|----4--2------42----24-------3h4-----4-42------24----|
G|-----34-431-14--4334--411-------------4---43-34--411-|X2
D|-----------------------------------------------------|
A|-----------------------------------------------------|
E|-----------------------------------------------------|

e|-----------------------------------------------------4----79643444~-|
B|----4--2---------4~-6~---------------------------4----422-----------|
G|-----34-431--1-4--------(insert pickslide here)---411---------------|
D|------------1-------------------------------------------------------|
A|--------------------------------------------------------------------|
E|--------------------------------------------------------------------|


| /  slide up
| \  slide down
| h  hammer-on
| p  pull-off
| ~  vibrato
| +  harmonic
| x  Mute note
=====================================================================
Comments