Misc Computer Games - Super Mario Theme Song Chords & Tabs

 

Super Mario Theme Song Chords & Tabs

Misc Computer Games Chords & Tabs

Version: 1 Type: Tab 0 ratings
1 star 2 stars 3 stars 4 stars 5 stars
comments

Super Mario Theme Song Tab

Simply Perfect.
Not one mistake.
You Have to know this tune, too play this tune.
/= slide
H= Hammer on
Add more slides and hammer on's everywhere
Super Mario Bros. Theme Song

e---------------------------------------------------------------------------|
B-7-7-7---7-10-------------------7-10-12-8-10-7--------10-9-8---------------|
G-------7--------7------------------------------7-9-6---------9/11-----7-9--|
D--------------7---7---9-11-10-9----------------------------------8H9-------|
A--------------------9------------------------------------------------------|
E---------------------------------------------------------------------------|


e-------------10-10-10------------------------------------------------------|
B-10-9-8---------------10-9-8---------------------------------7-------------|
G--------9/11-----------------9/11-----7-9-10-9-7---7-7-7-7-9---7-----------|
D----------------------------------8H9----------------------------9-7-------|
A---------------------------------------------------------------------------|
E---------------------------------------------------------------------------|

[ Tab from: http://www.guitartabs.cc/tabs/m/misc_computer_games/super_mario_theme_song_tab.html ]
e---------------------------------------------------------------------------|
B-----------7-----------7-------7-7-7---7-10---7---------8-8-----7/12-12-12-|
G-7-7-7-7-9---7-7-7-7-9---7-----------7----------7-------------6------------|
D---------------------------9-7--------------7-----7-8-9-----9--------------|
A---------------------------------------------------------------------------|
E---------------------------------------------------------------------------|


e---------------------------------------------------------------------------|
B-10-8-7-------7---------88-----8-8-8-7-----15------------------------------|
G--------7-------7------------6---------9-7---------------------------------|
D----------9-7-----7-8-9----9-----------------------------------------------|
A---------------------------------------------------------------------------|
E---------------------------------------------------------------------------|

Reapeat until satisfied. Then end with this:


e-------------------------------------12------------------------------------|
B-----7-10-7-----8-11-8-----9-12-9-----9------------------------------------|
G---7----------8----------9------------9------------------------------------|
D-7----------8----------9---------------------------------------------------|
A---------------------------------------------------------------------------|
E---------------------------------------------------------------------------|
Comments