Misc Computer Games - Super Mario Brothers Theme Chords & Tabs

 

Super Mario Brothers Theme Chords & Tabs

Misc Computer Games Chords & Tabs

Version: 2 Type: Bass Tab 0 ratings
1 star 2 stars 3 stars 4 stars 5 stars
comments

Super Mario Brothers Theme Bass Tab

from Super Mario Bros.
Super Mario Bros. Theme
Words and Music by Nintendo
Moderately = 100bpm
  -ps. this is just the bassline. listen to song carefully.
  -happy playing ! awesome song. Please Vote :)


G|--------------0---|-0-----------0-----|-0-5-9-10-7-9--5--2-4-0-|
D|-0-0--0---0-0-----|----2-----3----4-3-|------------------------|
A|------------------|-------3-----------|------------------------|
E|----------------3-|-------------------|------------------------|

G|-0-----------0-----|-0-5-9-10-7-9--5--2-4-0-|----0---5----5-5-5---| 
D|----2-----3----4-3-|------------------------|----------3--------3-| 
A|-------3-----------|------------------------|-0-------------------| 
E|-------------------|------------------------|---------------------|

G|--------0-5---0-|----0----5----5-5-5---|---1---3---5---0-0---|
D|----2-----------|-----------3--------3-|-------------------3-|
A|-3--------------|-3--------------------|-3-------------------| 
E|----------------|----------------------|---------------------|

G|------0----5--------5-5-5----|----------0-5------------|
D|---------------3-----------3-|-----2----------------0--|
A|-3---------------------------|-3-----------------------|
E|-----------------------------|-------------------------|


G|------0----5------5-5-5---|---1---3---5---0-0----|---------1--0---------| 
D|--------------3---------3-|----------------------|-----1----------------| 
A|-3------------------------|-3------------------3-|----------------3-----| 
E|--------------------------|----------------------|-4------------------3-|


G|--------1--0-------|--------1--0-------|------------0----|
D|----1--------------|----1--------------|-0-0-0--0-0------|
A|--------------3----|--------------3----|-----------------|
E|-4---------------3-|-4---------------3-|---------------3-|

[ Tab from: http://www.guitartabs.cc/tabs/m/misc_computer_games/super_mario_brothers_theme_btab_ver_2.html ]
G|-0-----------0-----|-0-5-9-10-7-9--5--2-4-0-|-0-----------0-----| 
D|----2-----3----4-3-|------------------------|----2-----3----4-3-| 
A|-------3-----------|------------------------|-------3-----------| 
E|-------------------|------------------------|-------------------|


G|-0-5-9-10-7-9--5--2-4-0-|-----0-0-5------5-5---|-------0-4--0-0--5-5-0-| 
D|------------------------|-----------3-3------3-|-0---3-----------------| 
A|------------------------|-3--------------------|-----------------------| 
E|------------------------|----------------------|-----------------------|


G|-----0-0--5------5-5---|-0--0-0-2-4-5---0----|-----0-0--5------5-5---| 
D|------------3-3------3-|---------------------|------------3-3------3-| 
A|-3---------------------|-------------------3-|-3---------------------| 
E|-----------------------|---------------------|-----------------------|


G|-------0-4--0-0--5-5-0-|-----0-0--5------5-5---|-0--0-0-2-4-5---0----| 
D|-0---3-----------------|------------3-3------3-|---------------------| 
A|-----------------------|-3---------------------|-------------------3-| 
E|-----------------------|-----------------------|---------------------|


G|---------1--0---------|---------1--0---------|---------1--0---------| 
D|-----1----------------|-----1----------------|-----1----------------| 
A|----------------3-----|----------------3-----|----------------3-----| 
E|-4------------------3-|-4------------------3-|-4------------------3-|


G|------------0----|-----0-0--5------5-5---|-------0-4--0-0--5-5-0-| 
D|-0-0-0--0-0------|------------3-3------3-|-0---3-----------------| 
A|-----------------|-3---------------------|-----------------------| 
E|---------------3-|-----------------------|-----------------------|


G|-----0-0--5------5-5---|-0--0-0-2-4-5---0----| 
D|------------3-3------3-|---------------------| 
A|-3---------------------|-------------------3-| 
E|-----------------------|---------------------|


G|-0-------------|------------------------| 
D|---2-2---3-----|------------------------| 
A|-------3-----4-|-3~~~~~~~~~~~~~~~~------| 
E|---------------|------------------------|
Comments