Misc Computer Games - Super Mario Brothers - 4 Level Chords & Tabs

 

Super Mario Brothers - 4 Level Chords & Tabs

Misc Computer Games Chords & Tabs

Version: 1 Type: Tab 0 ratings
1 star 2 stars 3 stars 4 stars 5 stars
comments

Super Mario Brothers - 4 Level Tab

   
Theme - Mario Bros (4 levels: 1st, Underground, Water, Bowser)
Tabbed by: Jason Wallen (BassGod1021@aol.com)

Tuning: Standard (E A D G B E)

*=play note rapidly many times
x=mute
h=hammer on
/=slide up
~=bend


E|12-12-12----12-15---|-------------------------------------------|----------------------|------------------||
B|---------13---------|-------------------------------------------|----------------------|------------------||
G|------------------12|---------------------9-10-7-9----------(x2)|---------7-8-9--------|---------7-8-9----||
D|--------------------|------------------10----------7-9-8-10-----|10-10-10-------10-7---|10-10-10----------||
A|--------------------|10-7---8-10-9-8-7--------------------------|--------------------10|------------------||
E|--------------------|-----8-------------------------------------|----------------------|------------------||

[ Tab from: http://www.guitartabs.cc/tabs/m/misc_computer_games/super_mario_brothers_4_level_tab.html ]
E|---------------------------------------|-----------------------------------------------------|--------------------------------------------|-----------------------------------------------------------------------||
B|---------------------------------------|-----------------------------------------------------|--------------------------------------------|-----------------------------------------------------------------------||
G|---------7-8-9---------9-9-9----9-12---|9-------------10-10-10------12-12-12-10----9---------|9-------------10-10-10------10-10-10-9------|-----------------------------------------------------------------------||
D|10-10-10-------10-7----------10--------|--10------------------------------------12---10--7---|--10-----------------------------------12-10|----------11-8-------------12-9-------------11-------12-------13----17*||
A|--------------------10---------------10|-----10-7-7-8----------8-10------------------------10|-----10-7-7-8----------8-10-----------------|-----9-11------------10-12------------11-13----12-14----13-15----------||
E|---------------------------------------|-----------------------------------------------------|--------------------------------------------|9-11-----------10-12------------11-13----------------------------------||

E|12-12-12----12-15----x-x-x-x-x-x|----------------|----------------|-----------------------------||
B|---------13----------x-x-x-x-x-x|----------------|----------------|-----------------------------||
G|------------------12-x-x-x-x-x-x|--5---2---3-----|----------------|-----------------------------||
D|---------------------x-x-x-x-x-x|------------(x2)|--5---2---3-(x2)|1-0---1-0---------4-3--------||
A|---------------------x-x-x-x-x-x|3---0---1-------|----------------|----3---------4-3-----4-3----||
E|---------------------x-x-x-x-x-x|----------------|3---0---1-------|----------4-3-------------4-3||

E|2-3-4-5-4-5-5-4-7-5-----|5-4-3-2-1-2-2-1-4-2-----|2-3-4-5-4-5-7-5-7-5-2-1-2-4-2-4-------2-------2-0|----------------------------||
B|------------------------|------------------------|--------------------------------2-2h4---2-2h4----|----------------------------||
G|--------------------(x2)|--------------------(x2)|-------------------------------------------------|----------------------------||
D|------------------------|------------------------|-------------------------------------------------|-----------------9-8--------||
A|------------------------|------------------------|-------------------------------------------------|-------------9-8----9-8-----||
E|------------------------|------------------------|-------------------------------------------------|5-4-/9-8-9-8------------9-8~||
Comments