Misc Computer Games - Super Mario Brothers 3 - Hammerhead Chords & Tabs

 

Super Mario Brothers 3 - Hammerhead Chords & Tabs

Misc Computer Games Chords & Tabs

Version: 1 Type: Tab 0 ratings
1 star 2 stars 3 stars 4 stars 5 stars
comments

Super Mario Brothers 3 - Hammerhead Tab

   
Tabbed by: SethMegadefan
Email: rdlilly@hickorytech.net

Tuning: Standard (E A D G B E) (Eddie Ate Dynamite, Good-Bye, Eddie)

This is the song you can hear when you fight the hammerhead guys that throw the
boomerangs and stuff at you. This is such a cool song... now, if you're as big
of a Mario 3 freak as I am you can play along with it!

e|*-------------------------------*|
B|---------------------------------|
G|---------------------------------|
D|-------------6-7-------------6-7-|
A|-----7-7-8-8---------7-7-8-8-----|
E|*8-8-------------8-8------------*|
 |                                 |
e|*------------------------------*-|
B|-4-5-4-5-3-1---1---1-4h3-1-----1-|
G|-------------2---------------2---|
D|---------------------------------|
A|---------------------------------|
E|*------------------------------*-|
[ Tab from: http://www.guitartabs.cc/tabs/m/misc_computer_games/super_mario_brothers_3_hammerhead_tab.html ]
e|---------------------------------------------------|
B|-------------4-5-----------------------------------|
G|-----4-4-5-5-----------------6-7-------------------|
D|-5-5-----------------7-7-8-8-----------------6-8---|
A|-----------------8-8-----------------7-7-8-8-------|
E|---------------------------------8-8---------------|
 |                                                   |
e|-3-3-5-6-7-3-0-3-1-1-0-1---------------------------|
B|---------------------------1-3-1-4-4-3-4-3-1---1---|
G|---------------------------------------------2-----|
D|---------------------------------------------------|
A|---------------------------------------------------|
E|---------------------------------------------------|

Here comes the cool part...
e|---------------|
B|---------------|
G|---------------|
D|---------------|
A|-----------5-5-|
E|-7-7-7-8-8-----|
 |               |
E|-3-3-3-3-3-3-3-|
B|-0-0-0-1-1-3-3-|
G|---------------|
D|---------------|
A|---------------|
E|---------------|

Now repeat the whole darn thing!

Well, that's about it. Pretty cool song, though.

Tablature: What means what?
*Repeat *
*Measure*
h  hammeron
p  pulloff
Comments