Misc Computer Games - Street Fighter - Ken Chords & Tabs

 

Street Fighter - Ken Chords & Tabs

Misc Computer Games Chords & Tabs

Version: 1 Type: Tab 0 ratings
1 star 2 stars 3 stars 4 stars 5 stars
comments

Street Fighter - Ken Tab

   
----------------------------------------------------------------------------
			     Ken Song - Steet Fighter
----------------------------------------------------------------------------
Tabbed by: James Rooney
Email: Whiteb00g@hotmail.com

Tuning: Standard EADGBe

 This isnt the version from the game but its the actual song (not sure who 
 its by). 
 
 It uses similar notes but it isn't quite as heavy. I could only find about 
 two tabs for this on the internet and neither seemed correct so i figured 
 id take a stab myself.

 Feel free to e-mail or for someone with a lot of time on their hands to 
 transcribe a defintive version of the proper game music.

 Intro
e ------------------------------------------------------------------------|
B ------------------------------------------------------------------------|
G -0----------------------------------------------------------------------|
D -0----0-----------------------------------------------------------------|
A ----0----3--3p1--1--1--0--------------------------------------------1---|
E ---------------------------3--3--3--3--3--3--3--3--3--3--3--3--3--3-----|


e -----------------------|
B -----------------------|
G -----------------------|
D -------------------0---|
A -0--0--0--0--0--0------|
E -----------------------|


 Main Riff
e|------------------------------|------------------------------|
B|------------------------------|------------------------------|
G|----7h11--9---7---------------|----7h11--9---7---------------|
D|-9----------------9---7---9---|-9----------------9---7---9---|
A|------------------------------|------------------------------|
E|------------------------------|------------------------------|
[ Tab from: http://www.guitartabs.cc/tabs/m/misc_computer_games/street_fighter_ken_tab.html ]
e|--------------------------------------------|
B|----------8------------7--------------------|
G|----7h11------9---7h9-----9---7---6br-------|
D|-9--------------------------------------7---|
A|--------------------------------------------|
E|--------------------------------------------|


 Theres nothing to deny your friends
 Theres nothng satisfying ken
 Hes got you by the heart
 In a one way in a one way brought from the start
 
 Theres nothing gratifying him
 Takes nothing to realise your ken
 Don't back away from the love you deserve again
 
 Yeahhhhhh

 Now Daaaaaaare

 Keep running through the times you hold down right to the end
 Takes nothing to realise your Ken
 Keep fighting for the right of the one you so truly am
 Takes nothing to realise your ken
 Your ken

 Its been a long and winding road
 Got a living breaking peoples bones
 So supernatural you dont want to be alone
 
 Whats say were enemies not friends
 Takes nothing to relaise your ken
 Straight uppercut the mouths that brought yout hat love agian

 Yeahhhhhhhh

 Yeahhhhhhhh

 Keep running through the times you hold down right to the end
 Takes nothing to realise your ken
  
 Keep fighting for the right of the one you so truly am
 Takes nothing to realise your ken
 Your Ken

 Yeahhhhhhhh
 
 Yeahhhhhhhh

 
 Keep running through the times you hold down right to the end
 Takes nothing to realise your ken
  
 Keep fighting for the right of the one you so truly am
 Takes nothing to realise your ken
 Your Ken


| /  slide up
| \  slide down
| h  hammer-on
| p  pull-off
| ~  vibrato
| +  harmonic
| x  Mute note
============================================================================
Comments