Misc Computer Games - Sonic Heroes - Trailer Chords & Tabs

 

Sonic Heroes - Trailer Chords & Tabs

Misc Computer Games Chords & Tabs

Version: 1 Type: Tab 0 ratings
1 star 2 stars 3 stars 4 stars 5 stars
comments

Sonic Heroes - Trailer Tab

-----------------------------------------------------------------------------
                  Sonic Heroes: Trailer Theme Music
-----------------------------------------------------------------------------

Game Title: Sonic Heroes
Song Title: Sonic Heroes Trailer Theme Music.
Go to http://www.soniccentral.com to view the trailer.
Tabbed by: Ben Zeroisgreatman
Tunning: (Guitar)-EADGBe (Bass)-EADG

Guitar 2: Intro:(play along to verse)
e|------------------------------------|
B|------------------------------------|
G|------------------------------------|
D|------------------------------------|
A|-1-1-3-1------1-1-3-1---------------|
E|---------1-1-----------1-1-4-4-4-6~-|


Guitar 1: verse: "What come up must come down," [w/Distortion]
e|-------------------------------------------|
B|-------------------------------------------|
G|-------------------------------------------|
D|-3-3-3-3--7-7-7-7-7-7-7-7--8-8-8-8-8-8-8-8-|
A|-3-3-3-3--7-7-7-7-7-7-7-7--8-8-8-8-8-8-8-8-|
E|-1-1-1-1--5-5-5-5-5-5-5-5--6-6-6-6-6-6-6-6-|
     . . .    . . . . . . .    . . . . . . .

e|----------------------------------------------|
B|----------------------------------------------|
G|----------------------------------------------|
D|-10-10-10-10-8-8-8-8--10-10-10-10-12-12-12-12-|
A|-10-10-10-10-8-8-8-8--10-10-10-10-12-12-12-12-|
E|-8--8--8--8--6-6-6-6--8--8--8--8--10-10-10-10-|
      .  .  .    . . .     .  .  .      .  .  .

Guitar 2: verse: "What come up must come down," [w/Grand piano synthasizer]
e|-------------------------------------------|
B|-------------------------------------------|
G|-------------------------------------------|
D|-3-3-3-3--7-7-7-7-7-7-7-7--8-8-8-8-8-8-8-8-|
A|-3-3-3-3--7-7-7-7-7-7-7-7--8-8-8-8-8-8-8-8-|
E|-1-1-1-1--5-5-5-5-5-5-5-5--6-6-6-6-6-6-6-6-|
     . . .    . . . . . . .    . . . . . . .

e|----------------------------------------------|
B|----------------------------------------------|
G|----------------------------------------------|
D|-10-10-10-10-8-8-8-8--10-10-10-10-12-12-12-12-|
A|-10-10-10-10-8-8-8-8--10-10-10-10-12-12-12-12-|
E|-8--8--8--8--6-6-6-6--8--8--8--8--10-10-10-10-|
      .  .  .    . . .     .  .  .      .  .  .

Bass: Verse
G|-------------------------------------------------------|
D|-------------------------------------------------------|
A|---------0-0-0-0-0-0-0-0--1-1-1-1-1-1-1-1--3-3-3-3-3-3-|
E|-1-1-1-1-----------------------------------------------|

G|-------------------------|
D|-----------------0-0-0-0-|
A|-1-1-1--3-3-3-3----------|
E|-------------------------|

Guitar 1: Bridge "Watch me..." [w/Distortion]
e|------------------|
B|------------------|
G|-8-8-8-8----------|
D|-8-8-8-8--3-3-3-3-|(x3)
A|-6-6-6-6--3-3-3-3-|
E|----------1-1-1-1-|
  |-------p.m------|


Guitar 1: Bridge "Heading your way"
e|-------------|
B|-------------|
G|-6-6-6--8\-0-|
D|-6-6-6--8\-0-|
A|-4-4-4--6\-0-|
E|-------------|

Guitar 2: Bridge " Watch me..." [w/Distortion]
e|----------|
B|----------|
G|-6/8~--1~-|
D|-6/8~--3~-|
A|-4/6~--3~-|
E|-------1~-|

Guitar 2: Bridge " Watch me..."[w/grand piano synthasizer]
e|-------------|
B|-------------|
G|-6-6-6--8\-0-|
D|-6-6-6--8\-0-|
A|-4-4-4--6\-0-|
E|-------------|
[ Tab from: http://www.guitartabs.cc/tabs/m/misc_computer_games/sonic_heroes_trailer_tab.html ]
Guitar 1: Chorus "Sonic heroes..." [W/Distortion]
e|-----------------------------------------------------------------|
B|-----------------------------------------------------------------|
G|-----------------------------------3-3-3-3-3-3-3-3--6-6-6--8-8-8-|
D|-3-3-3-3-3-3-3-3--7-7-7-7-7-7-7-7--3-3-3-3-3-3-3-3--6-6-6--8-8-8-|
A|-3-3-3-3-3-3-3-3--7-7-7-7-7-7-7-7--1-1-1-1-1-1-1-1--4-4-4--6-6-6-|
E|-1-1-1-1-1-1-1-1--5-5-5-5-5-5-5-5--------------------------------|

Guitar 2: Chorus fill: (After he says sonic heroes for a second time)
[w/Distortion]
e|-----------|
B|-----------|
G|-----------|
D|-----------|
A|------3----|
E|-3-5h---5h-|

Bass: Chorus: "Sonic heroes"
G|------------------------------------------------------------------|
D|------------------------------------------------------------------|
A|------------------0-0-0-0-0-0-0-0--1-1-1-1-1-1-1-1--2-4h-4-/6-6-6-|
E|-1-1-1-1-1-1-1-1--------------------------------------------------|

Guitar 1: Outro Chorus: "sonic, heroes..heroes!!!"[W/Distortion]
e|-------------------------------------------------------------------|
B|-------------------------------------------------------------------|
G|-------------------------------------4-4-4-4-4-4-4-4--7-7-7--9-9-9-|
D|-4-4-4-4-4-4-4-4-4--8-8-8-8-8-8-8-8--4-4-4-4-4-4-4-4--7-7-7--9-9-9-|
A|-4-4-4-4-4-4-4-4-4--8-8-8-8-8-8-8-8--2-2-2-2-2-2-2-2--5-5-5--7-7-7-|
E|-2-2-2-2-2-2-2-2-2--6-6-6-6-6-6-6-6--------------------------------|

Guitar 2:  Outro Chorus fill: (After he says  heroes for a second time)
[w/Distortion]
e|-----------|
B|-----------|
G|-----------|
D|-----------|
A|------4----|
E|-4-6h---6h-|

Bass:  Outro Chorus: "Sonic heroes..heroes"
G|------------------------------------------------------------------|
D|------------------------------------------------------------------|
A|------------------1-1-1-1-1-1-1-1--2-2-2-2-2-2-2-2--3-5h-5-/7-7-7-|
E|-2-2-2-2-2-2-2-2--------------------------------------------------|

Guitar 1: Outro [w/distortion]
e|--------------------------|
B|--------------------------|
G|-5-4-5-7--9-9--9-9--11-11-|
D|-5-4-5-7--9-9--9-9--11-11-|
A|-3-2-3-5--7-7--7-7--9--9--|
E|--------------------------|

Guitar 2: Outro [w/Grand Piano synthasizer]
e|--------------------------|
B|--------------------------|
G|-5-4-5-7--9-9--9-9--11-11-|
D|-5-4-5-7--9-9--9-9--11-11-|
A|-3-2-3-5--7-7--7-7--9--9--|
E|--------------------------|

Bass: Outro:
e|-----------------------|
B|-----------------------|
G|-----------------------|
D|-------0--2-2--22--4-4-|
A|-3-2-3-----------------|
E|-----------------------|


Guitar 1: Finale [w/Distortion]
e|-2~-|
B|-2~-|
G|-3~-|
D|-4~-|
A|-4~-|
E|-2~-|

Guitar 2: Finale [w/Flanger]
e|-2~-|
B|-2~-|
G|-3~-|
D|-4~-|
A|-4~-|
E|-2~-|

Bass: Finale:
G|----|
D|----|
A|----|
E|-2~-|

[Lyrics]
What comes up must come down,
Yet my feet don't touch the ground.
See the world spinning upsidedown,
I'm out of here without a sound.

I can feel your every race.
Step aside and turn the page.
Breaking through your crazy maze.
But I can bearly keep my eyes on you...

Watch me move the light away,
Watch me save the day.
Feel like the stars are getting close,
Heading your way.

Sonic heroes, Sonic Heroes,
Fight, you can flight, 
You can fly through this place,
Sonic Heroes, Sonic heroes,
Saving the space, 
For our heroes to race.
Sonic Heros, Heroes...
Here goes the reason,
And were on our way.

| ~ = Vibrato
| / = Slide up
| pm = Palm mute
| . = palm mute
| \ = Slide down


=============================================================================
Comments