Misc Computer Games - Sonic Adventure - It Doesnt Matter Chords & Tabs

 

Sonic Adventure - It Doesnt Matter Chords & Tabs

Misc Computer Games Chords & Tabs

Version: 1 Type: Bass Tab 0 ratings
1 star 2 stars 3 stars 4 stars 5 stars
comments

Sonic Adventure - It Doesnt Matter Bass Tab

   
-------------------------------------------------------------------------------
			     Sonic Adventure -  It doesn't matter
-------------------------------------------------------------------------------
Tabbed By : Zero is great man
Tuning: EADG
Note: This is for the Sonic Adventure version of the song,
not the sonic adventure 2 version.

Intro: Fill 1
G|---------------------|
D|---------------------|(x3)
A|-2-2-2-2-2-2-2-2-0-0-|
E|---------------------|

Intro part 2: Fill 2
G|-------------------------------|
D|-------------------------------|
A|-2-2-2-2-2-2-2-2--4-4-4-4--5-5-|
E|-------------------------------|

Intro part 3:
G|-----------------------------------------------------|
D|-----------------------------------------------------|
A|-------------------------------------------------3-5-|
E|-0-2-0-3-x-x-x-x-0-2-0-3-x-x-x-x-0-2-0-3-x-x-x-x-----|

Verse: "When I don't show off Don't criticize"
G|--------------------------------------------------------------|
D|--------------------------------------------------------------|
A|--------------------------------------------------------------|
E|-x-x-x-x-x-x-x-x-x-x-3-3-3-3-x-x-x-x-x-x-x-x-3-3-3-3--5-5-5-5-|

Pre chorus: "I don't know why, I can't lead though it might be tough"
G|------------------------------------|
D|------------------------------------|
A|-0-0-0-0--5-5-5-5--4-4-4-4--2-2-2-2-|
E|------------------------------------|
[ Tab from: http://www.guitartabs.cc/tabs/m/misc_computer_games/sonic_adventure_it_doesnt_matter_btab.html ]
Chorus: "It doesn't matter now what happens I will never..."
G|-----------------------------------------------------------------|
D|-----------------------------------------------------------------|
A|-3-3-3-3-3-3-3-3-------------------------------------------------|
E|-----------------5-5-5-5-5-5-5-5-1-1-1-1-1-1-1-1-3-3-3-3-3-3-3-3-|

Chorus part 2: "It doesn't matter, who is wrong and who is right"
G|--------------------------|
D|--------------------------|
A|--------------5-5-5-5-5-5-|
E|-1-1-1-1-1-1--------------|

Guitar solo: Play through guitar solo
G|-----------------------------------------------------------------|
D|-----------------------------------------------------------------|
A|-3-3-3-3-3-3-3-3-------------------------------------------------|
E|-----------------5-5-5-5-5-5-5-5-1-1-1-1-1-1-1-1-3-3-3-3-3-3-3-3-|

Guitar solo part 2:
G|---------------------------------------------|
D|-------------------------5-5-5-5-5-5-5-5-5-5-|
A|-------------------3-2-5---------------------|
E|-3-0-3-5-2-0-4-7-5---------------------------|

Outro: 
G|--------------------------------------------------------------|
D|--------------------------------------------------------------|
A|--------------------------------------------------------------|
E|-x-x-x-x-x-x-x-x-x-x-3-3-3-3-x-x-x-x-x-x-x-x-3-3-3-3--5-5-5-5-|

Outro part 2:
G|------------------|
D|-----3-2----------|
A|-5-2-----3--0-0-3-|
E|------------------|

| /  slide up
| \  slide down
| h  hammer-on
| p  pull-off
| ~  vibrato
| +  harmonic
| x  Mute note
===============================================================================
Comments