Misc Computer Games - Sims 2 - Third Pop Song Chords & Tabs

 

Sims 2 - Third Pop Song Chords & Tabs

Misc Computer Games Chords & Tabs

Version: 1 Type: Tab 0 ratings
1 star 2 stars 3 stars 4 stars 5 stars
comments

Sims 2 - Third Pop Song Tab

Song      Third pop song
Artist    EA Games
Game      Sims 2
Guitarist ???
Tabber    Tijtan

The day that I played this game. The first thing that I noticed that 
the music was pretty cool. Specially the the song that I've tabbed. The moment 
you play this song you'll notice which song I mean. It sounds stupid to 
tab a song from a game. But its actually a way to practice my hearing. 
Anyway, here's is my first tab. 

Tuning: Standard EADGBe

~   : Let Ring
X   : Mute

There are 2 guitars. The intro and the chorus are played together. This is the way to play 
it with 1 guitar.

Intro (clean)

e|------------------------------------------------------|
B|---3--9---6---6--9-3~--(0)-9---9----------------------|
G|-2---------------------------9---9--------------------|
D|------------------------------------------------------|  x 2
A|------------------------------------------------------|
E|------------------------------------------------------|

Verse (Light disorted)

e|------------------------------------------------------|
B|----------------------------------------------9---9---|
G|-77x7-------------7------77x7-------------7-----9---9-|
D|-77x7-77xx7-79x99-555555-77x7-77xx7-79x99-7-----------|
A|-55x5-77xx7 79x99-555555-55x5-77xx7-79x99-5-----------|
E|------55xx5-57x77--33333------55xx5-57x77-------------|


e|------------------------------------------------------|
B|------------------------------------------------------|
G|-77x7-------------7------77x7-------------7-----------|
D|-77x7-77xx7-79x99-755555-77x7-77xx7-79x99-555-5555----|
A|-55x5-77xx7-79x99-555555-55x5-77xx7-79x99-555-5555----|
E|------55xx5-57x77--33333------55xx5-57x77--33-3333----|

Chorus (Light disorted)

e|------------------------------------------------------|
B|------------------------------------------------------|
G|-7-7-777----------------------------------------------|
D|-7-7-777---7-7-777---5-5-5555-55-555------------------|  x 4
A|-5-5-555---7-7-777---5-5-5555-55-555------------------|
E|-----------5-5-555---3-3-3333-33-333------------------|

I play this part in an acoustic way, feel free how many time you stroke it (Your
guitar that is). This is how I do it.

Verse (Light disorted)

e|------------------------------------------------------|
B|----------------------------------------------9---9---|
G|-77x7-------------7------77x7-------------7-----9---9-|
D|-77x7-77xx7-79x99-555555-77x7-77xx7-79x99-7-----------|
A|-55x5-77xx7 79x99-555555-55x5-77xx7-79x99-5-----------|
E|------55xx5-57x77--33333------55xx5-57x77-------------|


e|------------------------------------------------------|
B|------------------------------------------------------|
G|-77x7-------------7------77x7-------------7-----------|
D|-77x7-77xx7-79x99-755555-77x7-77xx7-79x99-555-5555----|
A|-55x5-77xx7-79x99-555555-55x5-77xx7-79x99-555-5555----|
E|------55xx5-57x77--33333------55xx5-57x77--33-3333----|

Chorus (Light disorted)

e|------------------------------------------------------|
B|------------------------------------------------------|
G|-7-7-777----------------------------------------------|
D|-7-7-777---7-7-777---5-5-5555-55-555------------------|  x 6
A|-5-5-555---7-7-777---5-5-5555-55-555------------------|
E|-----------5-5-555---3-3-3333-33-333------------------|

Interlude (Light disorted)
[ Tab from: http://www.guitartabs.cc/tabs/m/misc_computer_games/sims_2_third_pop_song_tab.html ]
e|------------------------------------------------------|
B|------------------------------------------------------|
G|-777---------999--------------------------------------|
D|-777---555---999---7-77-------------------------------|  x 3
A|-555---555---777---7-77-------------------------------|
E|-------333---------5-55-------------------------------|

Solo (Light disorted)

e|------------------------------------------------------|
B|------------------------------------------------------|
G|------------------------------------------------------|
D|-------77-5-------55-4-------22-0-------55-4----------|  x 4
A|-5-5-5------2-2-2------0-0-0--------------------------|
E|----------------------------------3-3-3---------------|

Interlude (Light disorted)

e|------------------------------------------------------|
B|------------------------------------------------------|
G|-777---------999--------------------------------------|
D|-777---555---999---7-77-------------------------------|  x 2
A|-555---555---777---7-77-------------------------------|
E|-------333---------5-55-------------------------------|

Interlude (Light disorted)

e|------------------------------------------------------|
B|------------------------------------------------------|
G|-777---------999----------77777777--------------------|
D|-777---555---999---7-77---77777777--------------------|  x 1
A|-555---555---777---7-77---55555555--------------------|
E|-------333---------5-55-------------------------------|

Verse (Light disorted)


e|------------------------------------------------------|
B|------------------------------------------------------|
G|-77x7-------------7------77x7-------------7-----------|
D|-77x7-77xx7-79x99-755555-77x7-77xx7-79x99-555555------|  x 2
A|-55x5-77xx7-79x99-555555-55x5-77xx7-79x99-555555------|
E|------55xx5-57x77--33333------55xx5-57x77--33333------|


e|------------------------------------------------------|
B|----------------------------------------------9---9---|
G|-77x7-------------7------77x7-------------7-----9---9-|
D|-77x7-77xx7-79x99-555555-77x7-77xx7-79x99-7-----------|
A|-55x5-77xx7 79x99-555555-55x5-77xx7-79x99-5-----------|
E|------55xx5-57x77--33333------55xx5-57x77-------------|


e|------------------------------------------------------|
B|------------------------------------------------------|
G|-77x7-------------7------77x7-------------7-----------|
D|-77x7-77xx7-79x99-755555-77x7-77xx7-79x99-555-5555----|
A|-55x5-77xx7-79x99-555555-55x5-77xx7-79x99-555-5555----|
E|------55xx5-57x77--33333------55xx5-57x77--33-3333----|

Chorus (Light disorted)

e|------------------------------------------------------|
B|------------------------------------------------------|
G|-7-7-777----------------------------------------------|
D|-7-7-777---7-7-777---5-5-5555-55-555------------------|  x 8
A|-5-5-555---7-7-777---5-5-5555-55-555------------------|
E|-----------5-5-555---3-3-3333-33-333------------------|

Ending (clean)

e|-5~~--------------------------------------------------|
B|-7~~--------------------------------------------------|
G|-7~~--------------------------------------------------|
D|-5~~--------------------------------------------------|
A|-5~~--------------------------------------------------|
E|-5~~--------------------------------------------------|

Finaly, that's all. First time you play it, listen very carefull how they mute in the 
verse. 

Have fun!
Comments