Misc Computer Games - Resident Evil Thame Chords & Tabs

 

Resident Evil Thame Chords & Tabs

Misc Computer Games Chords & Tabs

Version: 1 Type: Tab 0 ratings
1 star 2 stars 3 stars 4 stars 5 stars
comments

Resident Evil Thame Tab

   
play 2x's

A                  B                                          END OF B]

1|----------------|------------------------------------------------------|
2|----------------|---------------2-1------------------------2-1---------|
3|-2-3----2-3-2-0-|--2-3---0---2-3-----3-3--0-3--2-3--0---2-3-----3-3--0-|
4|0------0--------|-----4-----------------3---------4-----------------3--|
5|----------------|------------------------------------------------------|
6|----------------|------------------------------------------------------|

1--------|------------------------------------------------------|
2----1-2-|---------------2-1------------------------2-1---------|
3--3-----|--2-3---0---2-3-----3-3--0-3--2-3--0---2-3-----3-3--0-|
4-3------|-----4-----------------3---------4-----------------3--|
5--------|------------------------------------------------------|
6--------|------------------------------------------------------|



                       END of C] C

1|-0-1----0-1-4-3-1------------------|
2|----2-3----------4-3-1---3-----1---|
3|-----------------------3---2-2---3-|
4|-----------------------------------|
5|-----------------------------------|
6|-----------------------------------|

[ Tab from: http://www.guitartabs.cc/tabs/m/misc_computer_games/resident_evil_thame_tab.html ]
A     B     C
1----------------------------------------------------------|-1x--|-1x--|-1x--|
2----------------------------------------------------------|-----|-----|-----|
3-----0-0-1-----0--3-1-0-----0-----0-0-1-----0-3-1-0---0-3-|-----|-----|-----|
4-2-3-------2-3----------3-2---2-3-------2-3---------3-----|-----|-----|-----|
5----------------------------------------------------------|-----|-----|-----|
6----------------------------------------------------------|-----|-----|-----|




1|-----------------------------------------------------------1---|
2|-----1-1-2-----1-4-2-1-----1----1-1-2-----1-4-2-1---1--2-4---1-|
3|-2-3-------2-3---------3-2---23-------2-3---------3------------|
4|---------------------------------------------------------------|
5|---------------------------------------------------------------|
6|---------------------------------------------------------------|

                                          [        play 4 times        ]

1-1-1----1----------------------------1-2-|-6---6----7-6-6---6---5---6-|
2-----1----4---4---1-2---2--------2-4-----|---7---7--------6---7---7---|
3------------3---3-----1---1--3-4---------|----------------------------|
4-----------------------------------------|----------------------------|
5-----------------------------------------|----------------------------|
6-----------------------------------------|----------------------------|

thats the hole song sounds pretty close to the music on the game. if you dont understand
how the A,B,C, parts go i will tell you. firsts you play A then B, then C. then when it
says A 1x that means only play part A once and its goes the same way for B and C
Comments