Misc Computer Games - Morrowind Theme Chords & Tabs

 

Morrowind Theme Chords & Tabs

Misc Computer Games Chords & Tabs

Version: 2 Type: Tab

Morrowind Theme Tab

Ok iv seen many versions of this tab on many diffrent sites
this is the correct verison i wrote myself.
Tuning= Standerd
^= Hammer

[ Tab from: http://www.guitartabs.cc/tabs/m/misc_computer_games/morrowind_theme_tab_ver_2.html ]
e=-----------------------------------------------------|
b=-----------------------------------------------------|
g=--------------2--2-5-0--^2---------------2--2-5-7----|
d=----0-2-3--3-5------------3-0--0-2-3--3-5------------|
a=-----------------------------------------------------|
E=-----------------------------------------------------|

e=-----------------------------------------------------|
b=-----------------------------------------------------|
g=----5-9-7--7-9-10-9-7-5-3-2--0-2-0-------------------|
d=------------------------------3----3-2-0-7-3-2-0-----|
a=-----------------------------------------------------|
E=-----------------------------------------------------|

Ok well please leave coments about my tab
i rilly want to hear what you thank of it.

Have Fun and enjoy.