Misc Computer Games - Metal Gear Solid Theme Chords & Tabs

 

Metal Gear Solid Theme Chords & Tabs

Misc Computer Games Chords & Tabs

Version: 1 Type: Tab

Metal Gear Solid Theme Tab

Here is the theme to metal gear solid series
E|-------------------------7-5-----------5-7-10-9-10-12-10------|
B|---7-5---5-7-0-7-5---5-7-----7---5-5-7------------------------|
G|-------7-----------7-----------7------------------------------|
D|--------------------------------------------------------------|
A|--------------------------------------------------------------|
E|--------------------------------------------------------------|
[ Tab from: http://www.guitartabs.cc/tabs/m/misc_computer_games/metal_gear_solid_theme_tab.html ]
E|--------9-10-9------------------------------------------------|
B|--12-10--------12-10-12v--------------------------------------|
G|--------------------------------------------------------------|
D|--------------------------------------------------------------|
A|--------------------------------------------------------------|
E|--------------------------------------------------------------|
v-vibrato
Any questions or comments, feel free to post them on the comment board.