Misc Computer Games - Max Payne Theme Chords & Tabs

 

Max Payne Theme Chords & Tabs

Misc Computer Games Chords & Tabs

Version: 1 Type: Tab 0 ratings
1 star 2 stars 3 stars 4 stars 5 stars
comments

Max Payne Theme Tab

-----------------------------------------------------------------------------             
                    Max Payne - Main Theme - Max Payne                     
-------------------------------------------------------------------------------


Tabbed by: metalgeardave
Email: metalgeardave@hotmail.com


[ Tab from: http://www.guitartabs.cc/tabs/m/misc_computer_games/max_payne_theme_tab.html ]
E|---------3-8-3-6-3--------------------------------------------|
B|-----4-6-----------4--------4---------------------------------|
G|---5-----------------4--------5-------------------------------|
D|------------------------6-5-----------------------------------|
A|--------------------------------------------------------------|
E|--------------------------------------------------------------|
Comments