Misc Computer Games - Legend Of Zelda - Time Chords & Tabs

 

Legend Of Zelda - Time Chords & Tabs

Misc Computer Games Chords & Tabs

Version: 1 Type: Tab 0 ratings
1 star 2 stars 3 stars 4 stars 5 stars
comments

Legend Of Zelda - Time Tab

Nintendo - Zelda: Song Of Time
Submitted By: DJ Mastabata G
EMail: djmastabatag@msn.com


E|--------------------------------------||
B|-----------------1-0------------------||
G|---2-----2-----2-----0---0-2----------||
D|-----0-3---0-3---------3-----0---2-0--||
A|-------------------------------3------||
E|--------------------------------------||
===========Themes - Song Of Time
Artista:Los creadores de Zelda
Cassette:Ambos
Song:of Time
Hexagramador:Paco
Email:dobidoa@hotmail.com


Bueno esta cancion va asi:

6                   
5    5     5                   3
4      3     3         3 5 7 0   2 0
3  2     2     2 5 4 0 
2        
1        
[ Tab from: http://www.guitartabs.cc/tabs/m/misc_computer_games/legend_of_zelda_time_tab.html ]
Esa es mi teoria de como va esta cancion.
===========          This is from the Nintendo Game
          The legend of Zelda
          ocarina of time
          
          Song Of Time
          
          E|-----------------------8-10--------------------|
          B|-10-----7-10-----7--10------8--7-8-10----------|
          G|----7--------7------------------------7--5-9-7-|
          D|-----------------------------------------------|
          A|-----------------------------------------------|
          E|-----------------------------------------------|
          
          mookie
          pencil@tasmail.com


================

Song:   The Song Of Time (From Legend of Zelda 64)
Tuning: Standard

I helped a friend figure this out, so I can't take full credit.  Anyway here it is.
e--------------------------
B------------1-0-----------
G-2----2----2---0-0-2------
D--0-3--0-3------3----0-2-0
A----------------------3---
E--------------------------
This is the song when Link is in the temple to change into an adult or a child.
Email me@KiD KoRn10@AOL.com
This Is accurate, but you could play it higher or lower.  Your choice.
Comments