Misc Computer Games - Legend Of Zelda - Storms Chords & Tabs

 

Legend Of Zelda - Storms Chords & Tabs

Misc Computer Games Chords & Tabs

Version: 1 Type: Bass Tab 0 ratings
1 star 2 stars 3 stars 4 stars 5 stars
comments

Legend Of Zelda - Storms Bass Tab

"SONG OF STORMS"
From Zelda: Ocarina of Time

This is one of my favorite Zelda songs.
It ties with one of the Wind Waker songs.

Standard EDAG Tuning.

INTRO
G |-----------------------|
A |-0--2-2-3----0-3-3-2---|
D |-----------------------|
E |-----------------------|   (2x)
[ Tab from: http://www.guitartabs.cc/tabs/m/misc_computer_games/legend_of_zelda_storms_btab.html ]
VERSE 1
G |------7-------7---9--10-9-10-9-5-2---|
A |-0--3-----0-3------------------------|
D |-------------------------------------|
E |-------------------------------------|

VERSE OUTRO 1
G |-2---0-2---2---0-----|
A |---3---------3---2---|
D |---------------------|
E |---------------------|

VERSE 1

VERSE OUTRO 2
G |-2---0-2---2---------|
A |---3---------0-------|
D |---------------------|
E |---------------------|

Just play these tabs over and over, playing the intro each time.

Enjoy!

- Teej
Comments