Misc Computer Games - Legend Of Zelda - Overworld Chords & Tabs

 

Legend Of Zelda - Overworld Chords & Tabs

Misc Computer Games Chords & Tabs

Version: 2 Type: Tab 0 ratings
1 star 2 stars 3 stars 4 stars 5 stars
comments

Legend Of Zelda - Overworld Tab

   
**New Artist Info**//This is the composer for many video games, such as Mario and Zelda
to name a few. Please add him to your database I have many more tabs to add for him.
Thanks.

Composer:Koji Kondo
Title:The Legend Of Zelda
Name:Ethan Wallace
Date:5/23/05
Other:This is the main theme used in most of TLOZ games. Any questions,comments,requests
please send to ethan@ethanwallace.com. Thanks

Symbols used:
 h = hammer-on
 / = slide up
 \ = slide down

Standard tuning: (low to high) EADGBe


Part 1:
======

--------------------------------------------------------------------|
--------------------------------------------------------------------|
-15-----------15-15-15--15-15---13-15-------15-15-15--15-15---13-15-|
--------------------------------------------------------------------|
--------------------------------------------------------------------|
--------------------------------------------------------------------|


---------------------------------------------------------------------|
---------------------------------------------------------------------|
-15-15-15--15-15---------------------------------------------15------|
-----------------15-15-15--15-15-15--15-15-15--15-15-15--15-------15-|
---------------------------------------------------------------------|
---------------------------------------------------------------------|

Riff A:
========

----------------13------------------16-18---------18--18-18--16----16---------|
-------13-15-16------------18-18-19-----------------------------19------19-18-|
-15-15------------------------------------------------------------------------|
------------------------------------------------------------------------------|
------------------------------------------------------------------------------|
------------------------------------------------------------------------------|
[ Tab from: http://www.guitartabs.cc/tabs/m/misc_computer_games/legend_of_zelda_overworld_tab_ver_2.html ]
----------------------------------------------------------------------------|
-18----16--16h18h19--------18--16--14--14h16h18--------16--14--13--13h15h17-|
----------------------------------------------------------------------------|
----------------------------------------------------------------------------|
----------------------------------------------------------------------------|
----------------------------------------------------------------------------|

-15----13-------------------------------------------|
----------------------------------------------------|
---------------------------------------------15-----|
-----------15-15-15--15-15-15--15-15-15--15------15-|
----------------------------------------------------|
----------------------------------------------------|

Part 2:
=======

----------------13------------------16-18-----------21----20----17-------|
-------13-15-16------------18-18-19--------------------------------------|
-15-15-------------------------------------------------------------------|
-------------------------------------------------------------------------|
-------------------------------------------------------------------------|
-------------------------------------------------------------------------|

|--------------------18----17-----------------|
|-18----19-----------------------18-----------|
|---------------------------------------------|
|---------------------------------------------|
|---------------------------------------------|
|---------------------------------------------| x2

--------------------14----13-------------------------------------------|
-15----16-----------------------14-----------------13--13h15h17--------|
---------------------------------------------15------------------------|
-----------------------------------------------------------------------|
-----------------------------------------------------------------------|
-----------------------------------------------------------------------|

-15----13-------------------------------------------|
----------------------------------------------------|
---------------------------------------------15-----|
-----------15-15-15--15-15-15--15-15-15--15------15-|
----------------------------------------------------|
----------------------------------------------------|

Repeat part.1
Comments