Misc Computer Games - Legend Of Zelda - Lost Woods Chords & Tabs

 

Legend Of Zelda - Lost Woods Chords & Tabs

Misc Computer Games Chords & Tabs

Version: 2 Type: Tab 0 ratings
1 star 2 stars 3 stars 4 stars 5 stars
comments

Legend Of Zelda - Lost Woods Tab

Legend of Zelda
"Lost Woods Theme"
Ocarina Of Time

This is a great song to play. It's a little confusing at first, but after a few minutes
it gets pretty easy. I'm just about 100% sure this tab is right.

R=Let Ring

E|------------------------------------------|
B|-------------------5-3--------------------|
G|---2-4---2-4---2-4-----4-5-4--------------|
D|3------3-----3---------------5-2R---2-5-2R|
A|----------------------------------5-------|
E|------------------------------------------|
[ Tab from: http://www.guitartabs.cc/tabs/m/misc_computer_games/legend_of_zelda_lost_woods_tab_ver_2.html ]
E|------------------------------------------|
B|-------------------5-3-----5--------------|
G|---2-4---2-4---2-4-----4-5---5----5-------|
D|3------3-----3-----------------5R---5---2R|
A|-------------------------------------5----|
E|------------------------------------------|

E|---------------------------------------------------------|
B|----------------------------------3-5R-------------------|
G|--------2-4-5-4-------------2-4-5-------------2-4-5-4----|
D|--2-3-5---------2R-----2-3-5-------------2-3-5---------2R|
A|5-------------------5-----------------5------------------|
E|---------------------------------------------------------|

E|------------------------------------|
B|------------------------3---5-6-3-5R|
G|------------2---4-2-5-4---5---------|
D|2---3-2-5-3---5---------------------|
A|--5---------------------------------|
E|------------------------------------|

That's it. Enjoy.
Comments