Misc Computer Games - Legend Of Zelda - Lon Lon Ranch Chords & Tabs

 

Legend Of Zelda - Lon Lon Ranch Chords & Tabs

Misc Computer Games Chords & Tabs

Version: 1 Type: Tab 0 ratings
1 star 2 stars 3 stars 4 stars 5 stars
comments

Legend Of Zelda - Lon Lon Ranch Tab

   
Lon Lon Ranch Theme from Legend of Zelda: Ocarina of Time
Tabbed by: cate brown


Intro: (play throughout the song)
        D          G
e|-----2-2--------3-3-------------2-2-------3-3------------------------------|
B|-----3-3--------0-0-------------3-3-------0-0------------------------------|
G|---2-2-2--2-----0-0-----------2-2-2-2-----0-0------------------------------|
D|-0------------0-------------0-----------0----------------------------------|
A|---------------------------------------------------------------------------|
E|------------3-------------------------3------------------------------------|

Main:
e|---------------------------------------------------------------------------|
B|-3-0--------3-0--------3-0---0---------------0-3-0-3-3-2-0-----------------|
G|-----2----------2----------2---2---------------------------2---------------|
D|---------------------------------------4-3-4-------------------------------|
A|---------------------------------------------------------------------------|
E|---------------------------------------------------------------------------|

e|-----------------------------------------------------0---------------------|
B|-3-0--------3-0--------3-0---0----------0-2-3------3---3-------------------|
G|-----2----------2----------2---2---------------------------2---------------|
D|---------------------------------4-3-4-------------------------------------|
A|---------------------------------------------------------------------------|
E|---------------------------------------------------------------------------|

Main, part two:
e|---------------------------------------------------------------------------|
B|-----------1---------------------------------------------------------------|
G|-3-3-3-3-3---3-3-2-2---------0-0-0-0-0-2-3-2-------------------------------|
D|---------------------------3-----------------------------------------------|
A|---------------------------------------------------------------------------|
E|---------------------------------------------------------------------------|
[ Tab from: http://www.guitartabs.cc/tabs/m/misc_computer_games/legend_of_zelda_lon_lon_ranch_tab.html ]
Interlude
e|-------------|
B|-------------|
G|-------------|
D|-2/11--------|
A|-------------|
E|-------------|

Main, part three:
e|---------------------------------------------------------------------------|
B|-3-0--------3-0--------3-0---0---------------0-3-0-3-3-2-0-----------------|
G|-----2----------2----------2---2---------------------------2---------------|
D|---------------------------------------4-3-4-------------------------------|
A|---------------------------------------------------------------------------|
E|---------------------------------------------------------------------------|

e|-----------------------------------------------------0---------------------|
B|-3-0--------3-0--------3-0---0----------0-2-3------3---3-------------------|
G|-----2----------2----------2---2-------------------------------------------|
D|---------------------------------4-3-4-------------------------------------|
A|---------------------------------------------------------------------------|
E|---------------------------------------------------------------------------|

Bridge:
e-----2-2--------3-3----10-10~~~-7-5~~-1p0-----------------------------------|
B-----3-3--------0-0-----------------------3~~~------------------------------|
G---2-2-2--2-----0-0---------------------------------------------------------|
D-0------------0-------------------------------------------------------------|
A----------------------------------------------------------------------------|
E------------3---------------------------------------------------------------|

then repeat it from the beginning, only sound like a different
instrument! ;)


riff A:
      D D        G G
e-----2-2--------3-3--------------------|
B-----3-3--------0-0--------------------|
G---2-2-2--2-----0-0--------------------|
D-0------------0------------------------|
A---------------------------------------|
E------------3--------------------------|

riff B:
        F            C
e-------1------------1------------------|
B-----1---1--------1---1----------------|
G---2-------2---------------------------|
D-3--------------2-------2--------------|
A--------------3------------------------|
E---------------------------------------|
Comments