Misc Computer Games - Legend Of Zelda - Epona Chords & Tabs

 

Legend Of Zelda - Epona Chords & Tabs

Misc Computer Games Chords & Tabs

Version: 2 Type: Tab

Legend Of Zelda - Epona Tab

----------------------------------------------------------------------------
			    Epona's Song
----------------------------------------------------------------------------
Tabbed by:destin
Email:wotrocks@hotmail.com

Tuning:
[ Tab from: http://www.guitartabs.cc/tabs/m/misc_computer_games/legend_of_zelda_epona_tab_ver_2.html ]
e|-------------------------------------------------------------------------|
B|-------------------------------------------------------------------------|
G|-------------------------------------------------------------------------|
D|---7--4---------------------7--4--------------7--4-----4-----------------|
A|---5-----7------------------5-----7-----------5-----7-----7--------------|
E|-------------------------------------------------------------------------|

e|-------------------------------------------------------------------------|
B|-------------------------------------------------------------------------|
G|-------------------------------------------------------------------------|
D|------------------4---6---7------7--9--7---------------------------------|
A|----4--2--4-------0--------------5-----0---------------------------------|
E|----0--------------------------------------------------------------------|

This sounds good to me