Misc Computer Games - Legend Of Zelda - Epona Chords & Tabs

 

Legend Of Zelda - Epona Chords & Tabs

Misc Computer Games Chords & Tabs

Version: 1 Type: Tab 0 ratings
1 star 2 stars 3 stars 4 stars 5 stars
comments

Legend Of Zelda - Epona Tab

Nintendo - Epona's Song
Submitted By: DJ Mastabata G
EMail: djmastabatag@msn.com


E|---10-7-----10-7-----10-7----7-----------9-9-10-7--10-12-10-||
B|--------10-------10-------10---10--7-6-7--------------------||
G|------------------------------------------------------------||
D|------------------------------------------------------------||
A|------------------------------------------------------------||
E|------------------------------------------------------------||
===========          This is from the Nintendo Game
          The legend of Zelda
          ocarina of time
          
          Epona's Song
          
          E|-10--7--------10--7--------10-7-----7-----|
          B|-------7------------7------------7-----10-|
          G|------------------------------------------|
          D|------------------------------------------|
          A|------------------------------------------|
          E|------------------------------------------|
          
          
          mookie
          pencil@tasmail.com===================================================================
[ Tab from: http://www.guitartabs.cc/tabs/m/misc_computer_games/legend_of_zelda_epona_tab.html ]
          Song: Eponias song
          Artist: (Zelda) Theme
          Tabed by Per "Pogo" Stenberg
          
          See my keyboard, guitar and bass manson tabs on .
          
          
          ----------------------------------------------
          -3-----3-----3--------------------------------
          ---4-2---4-2---4-2-4-2--------2-4-5--5-5-4-2--
          ------------------------3-2-3----------------5
          ----------------------------------------------
          ----------------------------------------------
          
          fanta98@hotmail.com=======================

          
          Author/Artist: Zelda
          Title: epona's song
          Album: Zelda: ocarina of time and majora's mask
          Transcribed by: matt
          Email: mankind1111@hotmail.com
          
          simple
          
          ------------------------------------------------------------------------------
          ---3-----3-----3--------------------------------------------------------------
          -----5-4---5-4---5-4-5--------------------------------------------------------
          ------------------------------------------------------------------------------
          ------------------------------------------------------------------------------
          ------------------------------------------------------------------------------
Comments