Misc Computer Games - Legend Of Zelda - Bolero Of Fire Chords & Tabs

 

Legend Of Zelda - Bolero Of Fire Chords & Tabs

Misc Computer Games Chords & Tabs

Version: 1 Type: Tab

Legend Of Zelda - Bolero Of Fire Tab

----------------------------------------------------------------------------
			     BOLERO OF FIRE
----------------------------------------------------------------------------
Tabbed by:DESTIN
Email: WOTROCKS@HOTMAIL.COM

Tuning:standard

e|-------------------------------------------------------------------------|
B|-------------------------------------------------------------------------|
G|-------------------------------------------------------------------------|
D|---5--2--5--2-----9--5--9--5---------------------------------------------|
A|-------------------------------------------------------------------------|
E|-------------------------------------------------------------------------|
[ Tab from: http://www.guitartabs.cc/tabs/m/misc_computer_games/legend_of_zelda_bolero_of_fire_tab.html ]
e|-------------------------------------------------------------------------|
B|-------------------------------------------------------------------------|
G|-------------------------------------------------------------------------|
D|--5--2--5--2-------9--5--9--5--------------------------------------------|
A|--3----------------7-----------------------------------------------------|
E|-------------------------------------------------------------------------|

e|-------------------------------------------------------------------------|
B|-------------------------------------------------------------------------|
G|-----------------------------11--7--11--7------15--11--15--11------------|
D|---5--2--5--2---9--5--9--5----9-------------13---------------------------|
A|---3------------7--------------------------------------------------------|
E|-------------------------------------------------------------------------|

e|-------------------------------------------------------------------------|
B|-----------------------22--18--22--18~-----------------------------------|
G|----20--16--20--16-----20------------------------------------------------|
D|----18-------------------------------------------------------------------|
A|-------------------------------------------------------------------------|
E|-------------------------------------------------------------------------|

ENJOY!

~ VIBRATO