Misc Computer Games - Halo 2 Theme Chords & Tabs

 

Halo 2 Theme Chords & Tabs

Misc Computer Games Chords & Tabs

Version: 3 Type: Tab 0 ratings
1 star 2 stars 3 stars 4 stars 5 stars
comments

Halo 2 Theme Tab

-------------------------------------------------------------------------------
			                     Halo 2 - Steve Vai
-------------------------------------------------------------------------------
Tabbed by: AXE545
Email: fireballc2000@aol.com

Tuning: Standard


	Really magnificent video game theme by Vai. On this song, try to use your
ring finger as opposed to your pinky. Enjoy!
                                            Harm. Whammy dive   
e|----------------------------------------------5----------------------------|
B|---whammydive--------------------------------------------------------------|
G|--9-------11--12--14--12-11h12\9h11\7--9-----------------------------------|
D|---------------------------------------------------------------------------|
A|---------------------------------------------------------------------------|
E|---------------------------------------------------------------------------|
[ Tab from: http://www.guitartabs.cc/tabs/m/misc_computer_games/halo_2_theme_tab_ver_3.html ]
e|------------------------------|
B|------------------------------|
G|o----------------------------o|   -Rhythm, repeat as necessary. 
D|o-----9----11----12-----14\--o|
A|------7----9-----10-----12\---|
E|--000---000--000----000-------|
                                                          Harm.
e|--12--14--15--17-----------------------------------------12----------------|
B|--15^-17^-18^-20^-22-20-19-17\15/17--17h15\12------------------------------|
G|-----------------------------------------------14p12-----------------------|
D|-----------------------------------------------------14--------------------|
A|---------------------------------------------------------------------------|
E|---------------------------------------------------------------------------|
Cool solo thing. This is the part that you should use your ring finger.
e|---------------------------------------------------------------------------|
B|-12--------12-14-15--12-15-14-12------12-14-12------12-----12-15-15^-------|
G|-14^-----------------------------14------------14--------------------------|
D|------(14)--------------------------14-----------14----(14)----------------|
A|---------------------------------------------------------------------------|
E|---------------------------------------------------------------------------|

e|------------------12---------------12-14--------15^--14-------15^----------|
B|--^15p12-15-14-12-----15-14-12--15--------15-12---------15-12--------------|
G|---------------------------------------------------------------------------|
D|---------------------------------------------------------------------------|
A|---------------------------------------------------------------------------|
E|---------------------------------------------------------------------------|

e|---------12-14-15--17----12-14--12-14-15-14-12-14-12----------12-----------|
B|--12--15--------------15-----------------------------15-14-15--------------|
G|---------------------------------------------------------------------------|
D|---------------------------------------------------------------------------|
A|---------------------------------------------------------------------------|
E|---------------------------------------------------------------------------|

e|--19--19-19-19--19-19-19^h17----------17-----------------------------------|
B|-----------------------------20-17-20----20-19-----------------------------|
G|---------------------------------------------------------------------------|
D|---------------------------------------------------------------------------|
A|---------------------------------------------------------------------------|
E|---------------------------------------------------------------------------|

e|----------------|----17-18--20-18-17-|----------------|--------------------|
B|---15-20----18--|-20-----------------|---17-22----20--|-17-19-20-19-17-----|
G|o--------17----o|--------------------|o--------19-----|----------------19--|
D|o--------------o|--------------------|o---------------|--------------------|
A|----------------|--------------------|----------------|--------------------|
E|----------------|--------------------|----------------|--------------------|
Comments